Your One-Stop Source For
Music Lyrics
Bass and Guitar Tabs
and More...
Music Lyrics Bass and Guitar Tabs

 

The Tabs Are Below

Learn To Read Tab
Chords Handbook
Corrections & Additions
Get Official Tab
SOAD tabs @ 911Tabs

Artist: System Of A Down

Album: Toxicity

 

Science Bass Tab

Tabbed 9/12/01

 

Drop C Tuning EADG - CGCF

 

This is how I play Science. There is also a

Forest btab of mine, and I want to do the rest

of toxicity one day. Comments or corrections or

stuff: useyour_fingers@yahoo.co.uk

 

Play this loudly. No reason, just for fun.

Oh and maybe use a pick, sounds better on the verses :D

 

0:13

F|-----------------------------------------------------------|

C|-----------------------------------------------------------|

G|-5-------------5-------------5------------------7-8-10-8-7-|

C|---0-0-0-0-0-0---0-0-0-0-0-0---0-0-0-0-0-0-8-10------------|...x3

 

 

"Making two posibilities a reality"

F|-------------------------------------------------------------|

C|-------------------------------------------------------------|

G|-6-5-5-555-5-5-555-5-5-555-5-5-6-5-5-555-5-5-555-5-5-555-5-5-|

C|-------------------------------------------------------------|

 

"Fighting of the diseased programming"

F|------------------------------------------------|

C|------------------------------------------------|

G|-6-5-5-555-5-5-6-5-5-555-5-5-6-55-6-55-6-55-6-55|

C|------------------------------------------------|

 

I am not sure about the rests, you could play F-7- (C) instead.

"Science fails to recognize"

F|-------------------------------------------------------------|

C|-------------------------------------------------------------|

G|-R-5-5-555-5-5-555-5-5-555-5-5-R-5-5-555-5-5-555-5-5-555-5-5-|

C|-------------------------------------------------------------|

 

"Letting the reigns go"

R or F-7- (C) again.

F|------------------------------------------------|

C|------------------------------------------------|

G|-R-5-5-555-5-5-R-5-5-555-5-5-R-55-R-55-R-55-R-55|

C|------------------------------------------------|

 

"Science has failed our world"

F|-----------------------------------------------------------|

C|-----------------------------------------------------------|

G|-5-------------5-------------5------------------7-8-10-8-7-|

C|---0-0-0-0-0-0---0-0-0-0-0-0---0-0-0-0-0-0-8-10------------|...x3

 

"Science fails to recognize"

F|-------------------------------------------------------------|

C|-------------------------------------------------------------|

G|-6-5-5-555-5-5-555-5-5-555-5-5-6-5-5-555-5-5-555-5-5-555-5-5-|

C|-------------------------------------------------------------|

 

"Letting the reigns go"

R or F-7- (C)

F|------------------------------------------------|

C|------------------------------------------------|

G|-R-5-5-555-5-5-R-5-5-555-5-5-R-55-R-55-R-55-R-55|

C|------------------------------------------------|

 

"Science has failed our world"

F|-----------------------------------------------------------|

C|-----------------------------------------------------------|

G|-5-------------5-------------5------------------7-8-10-8-7-|

C|---0-0-0-0-0-0---0-0-0-0-0-0---0-0-0-0-0-0-8-10------------|...x2

 

"Spirit moves through all things"

F|-----------------------------------------------------------|

C|-----------------------------------------------------------|

G|------------------7-8-10-8-7--------------------7-8-10-8-7-|

C|-0---2---3---8-10--------------0---2---3---8-10------------|

 

F|-----------|

C|-----------|

G|-----------|

C|-0---0---0-|....x3

 

Let Ring-->

F|--------|

C|--------|

G|-3------|

C|--------|

 

F|-------------------------------------------------------------------------------|

C|-------------------------------------------------------------------------------|

G|-55-5--5-55-555-55---55-5--5-55-555-55---55-5--5-55-555-55---33-3--3-33-333-33-|

C|-------------------------------------------------------------------------------|....x2

 

"Letting the reigns go to the unfolding, is faith, faith, faith, faith"

F|---------------------------------------|

C|---------------------------------------|

G|-55-5--5-55-555-55---55-5--5-55-555-55-|

C|---------------------------------------|

 

"Letting the reigns go to the unfolding"

F|-----------------------------|

C|-----------------------------|

G|-----------------------------|

C|-R-0-0-000-0-0-R-0-0-000-0-0-|

 

"is faith, faith, faith, faith"

Again, R or F-7- (C)

F|---------------------|

C|---------------------|

G|---------------------|

C|-R-00-R-00-R-00-R-00-|

 

"Science has failed our world"

F|-----------------------------------------------------------|

C|-----------------------------------------------------------|

G|-5-------------5-------------5------------------7-8-10-8-7-|

C|---0-0-0-0-0-0---0-0-0-0-0-0---0-0-0-0-0-0-8-10------------|...x2

 

"Spirit moves through all things"

F|-----------------------------------------------------------|

C|-----------------------------------------------------------|

G|------------------------------------------------7-8-10-8-7-|

C|0-000-000-0000-2-222-222-222-3-333-333-333-8-10------------|..x2

 

"Spirit moves through all things"

F|-------------------------------------------------------------|

C|-------------------------------------------------------------|

G|------------------7-8-10-8-7--------------------7-8-10-8-7---|

C|-0---2---3---8-10--------------0---2---3---8-10------------0-|

 

 

Return to my System of a Down bass tabs page

The Tablature is Copyright its respective owners.

Sign Up For My Newsletter
Subscribe | Unsubscribe

Site Map | Disclaimer | Privacy Policy | Media Kit | Submissions/Corrections

Website © 2000-2014 mattsmusicpage.com. All rights reserved.

Legal & DMCA: Matt's Music Page has been providing lyrics and tabs in a legal way, paying royalties each year to a few organizations. Then, all lyrics and tabs were removed from the site. Now, there's a new owner to the site, which purchased it August 26, 2014, and he is in negotiation to obtain licensing from BMI at the moment. If you have a specific DMCA request -- please do not hesitate to contact me via the contact button on top. I will do my very best to keep this site fully legal.

Get our toolbar!