Your One-Stop Source For
Music Lyrics
Bass and Guitar Tabs
and More...
Music Lyrics Bass and Guitar Tabs

 

The Tabs Are Below

Learn To Read Tab
Chords Handbook
Corrections & Additions
Get Official Tab
SOAD tabs @ 911Tabs

BOUNCE

As recorded by System of a Down

(From the 2001 Album TOXICITY)

 

Words and Music by System of a Down

Transcribed by Stephen Simpson and John Harag

 

Gtr I (C G C F A D) -

Gtr II (C G C F A D) -

 

Intro/Chorus

Q=185

$ To Coda

4/4

Gtrs I, II

PM------------------------| PM------------------------|

Q E E E E E E E E E E E E Q Q E E E E E E E E E E E E Q 4x

||-----------------|----------------|----------------|-----------------||

||o----------------|----------------|----------------|----------------o||

||-----------------|----------------|----------------|-----------------||

||-----------------|----------------|----------------|-----------------||

||o-8--7-7-8-8-7-7-|-8-8-7-7-8-8-0--|-8--7-7-8-8-7-7-|-8-8-7-7-8-8-0--o||

||--8--7-7-8-8-7-7-|-8-8-7-7-8-8-0--|-8--7-7-8-8-7-7-|-8-8-7-7-8-8-0---||

 

 

1st Verse

D.S. al Coda

PM---------------------------------------------------------|

E E q E E q E E q E E q E E q E E q E E q E E q

||----------------|---------------|---------------|-----------------||

||o---------------|---------------|---------------|----------------o||

||----------------|---------------|---------------|-----------------||

||----7-8----7-8--|---7-8----7-8--|---6-7----6-7--|---6-7----6-7----||

||o-5------5------|-5------5------|-4------4------|-4------4-------o||

||----------------|---------------|---------------|-----------------||

 

 

2nd Verse

&

PM-------------------------------------------------------------|

E E q E E q E E q E E q E E q E E q E E q E E q

||------------------|-----------------|---------------|-----------------||

||o-----------------|-----------------|---------------|----------------o||

||------------------|-----------------|---------------|-----------------||

||----9-10----9-10--|---9-10----9-10--|---9-8----9-8--|---9-8----9-8----||

||o-7-------7-------|-7-------7-------|-6------6------|-6------6-------o||

||------------------|-----------------|---------------|-----------------||

 

 

Chorus

$$ Fine

PM-------------------------------------------------------------|

Q E E E E E E E E E E E E Q Q E E E E E E E E E E E E Q

||-----------------|----------------|----------------|----------------||

||o----------------|----------------|----------------|---------------o||

||-----------------|----------------|----------------|----------------||

||-----------------|----------------|----------------|----------------||

||o-8--7-7-8-8-7-7-|-8-8-7-7-8-8-0--|-8--7-7-8-8-7-7-|-8-8-7-7-8-8-0-o||

||--8--7-7-8-8-7-7-|-8-8-7-7-8-8-0--|-8--7-7-8-8-7-7-|-8-8-7-7-8-8-0--||

 

 

Bridge #1

Q=183

Gtr I

Q Q Q Q Q Q Q Q Q Q Q Q Q Q Q Q

||-------------------|---------------|---------------|---------------||

||o------------------|---------------|---------------|--------------o||

||--(10)--10-----10--|----10-----10p=|=(9)--9-----9--|----9-----9----||

||----8-------8------|-8------8------|--8------8-----|-8-----8-------||

||o------------------|---------------|---------------|--------------o||

||-------------------|---------------|---------------|---------------||

 

 

Bridge #2

Gtrs I, II

PM--| PM--| PM--| PM--| PM--| PM--| PM--| PM--|

E E E E E E E E E E E E E E E E E E E E E E E E E E E E E E E E

||------------------|-----------------|-----------------|-------------------||

||o-----------------|-----------------|-----------------|------------------o||

||------------------|-----------------|-----------------|-------------------||

||------------------|-----------------|-----------------|-------------------||

||o-8-8-0---8-8-0---|-8-8-0---8-8-0---|-8-8-0---8-8-0---|-8-8-0---8-8-0----o||

||--8-8-0---8-8-0---|-8-8-0---8-8-0---|-8-8-0---8-8-0---|-8-8-0---8-8-0-----||

 

 

Gtr I

E E Q E E Q E E Q E E Q E E Q E E Q E E Q E E Q

||------------------|-----------------|---------------|-----------------||

||o-----------------|-----------------|---------------|----------------o||

||------10------10--|-----10------10--|-----9------9--|-----9------9----||

||-------8-------8--|------8-------8--|-----8------8--|-----8------8----||

||o-8-8-----8-8-----|-8-8-----8-8-----|-8-8----8-8----|-8-8----8-8-----o||

||--8-8-----8-8-----|-8-8-----8-8-----|-8-8----8-8----|-8-8----8-8------||

 

 

D.S.S. al Fine

Gtrs I, II

PM--------------------------------------------------------------|

E E q E E q E E q E E q 3x E E q E E q E E q E E q

||----------------|----------------||-----------------|------------------*|

||o---------------|---------------o||-----------------|------------------*|

||----------------|----------------||-----------------|------------------*|

||----------------|----------------||-----------------|------------------*|

||o---------------|---------------o||-----------------|------------------*|

||--8-8-0--8-8-0--|-8-8-0--8-8-0---||-7-7-11--7-7-11--|-7-7-11--7-7-11---*|

 

 

Duration Legend

---------------

W - whole; H - half; Q - quarter; E - 8th; S - 16th; T - 32nd; X - 64th; a - acciaccatura

+ - note tied to previous; . - note dotted; .. - note double dotted

Uncapitalized letters represent notes that are staccato (1/2 duration)

Irregular groupings are notated above the duration line

Duration letters will always appear directly above the note/fret number it represents the

duration for. Duration letters with no fret number below them represent rests. Multi-

bar rests are notated in the form Wxn, where n is the number of bars to rest for. Low

melody durations appear below the staff

 

Tablature Legend

----------------

h - hammer-on

p - pull-off

b - bend

pb - pre-bend

r - bend release (if no number after the r, then release immediately)

/\ - slide into or out of (from/to "nowhere")

s - legato slide

S - shift slide

- natural harmonic

[n] - artificial harmonic

n(n) - tapped harmonic

~ - vibrato

tr - trill

T - tap

TP - trem. picking

PM - palm muting

\n/ - tremolo bar dip; n = amount to dip

\n - tremolo bar down

n/ - tremolo bar up

/n\ - tremolo bar inverted dip

= - hold bend; also acts as connecting device for hammers/pulls

<> - volume swell (louder/softer)

x - on rhythm slash represents muted slash

o - on rhythm slash represents single note slash

 

Misc Legend

-----------

| - bar

|| - double bar

||o - repeat start

o|| - repeat end

*| - double bar (ending)

: - bar (freetime)

$ - Segno

& - Coda

Tempo markers - = BPM(8/16=s8/s16), where s8 = swing 8ths, s16 = swing 16ths

 

Return to my System of a Down tabs page

The Tablature is Copyright its respective owners.

Sign Up For My Newsletter
Subscribe | Unsubscribe

Site Map | Disclaimer | Privacy Policy | Media Kit | Submissions/Corrections

Website © 2000-2014 mattsmusicpage.com. All rights reserved.

Legal & DMCA: Matt's Music Page has been providing lyrics and tabs in a legal way, paying royalties each year to a few organizations. Then, all lyrics and tabs were removed from the site. Now, there's a new owner to the site, which purchased it August 26, 2014, and he is in negotiation to obtain licensing from BMI at the moment. If you have a specific DMCA request -- please do not hesitate to contact me via the contact button on top. I will do my very best to keep this site fully legal.

Get our toolbar!