Your One-Stop Source For
Music Lyrics
Bass and Guitar Tabs
and More...
Music Lyrics Bass and Guitar Tabs

 

The Tabs Are Below

Learn To Read Tab
Chords Handbook
Corrections & Additions
Get Official Tab
SOAD tabs @ 911Tabs

System of a Down

Boom!

 

Intro

D||-------------------------------|

A||-------------------------------|

F||-------------------------------|

C||-------------------------------|

G||-------------------------------|

C||-1-1-0-0-1-1-0-0-1-1-0-0-1-1-0-|

 

Verse (Guitar 1)

|-------------------------------------------------------|

|-------------------------------------------------------|

|-------------------------------------------------------|

|--------7--------------7--------------6--------------6-|

|-5-7-8-7--8-7-8-5-7-8-7--8-7-8-4-6-7-6--7-6-7-4-6-7-6--|

|-------------------------------------------------------|

 

|---------------------------------------------------|

|---------------------------------------------------|

|---------------------------------------------------|

|-----------------10--------------------10----------|

|-7-6-7-8-10-11-10---11-10-11-8-10-11-10---11-10-11-|

|---------------------------------------------------|

 

|----------------------------------------------------------------------|

|-----------------------------10-10-9-9-10-10-9-9-10-10-9-9-10-10-9-9--|

|-------------------------------7--7-7-7--7--7-7-7--7--7-7-7--7--7-7-7-|

|--------8--------------8----------------------------------------------|

|-6-8-9-8--9-8-9-6-8-9-8--9-8------------------------------------------|

|----------------------------------------------------------------------|

p.m. ........................................

 

|---------7-8-------------7-8-------------7-8--------------------7-8--------|

|--10-9-10---------10-9-10---------10-9-10---10-9-10------10-9-10---10-9-10-|

|-7----------10-9-7----------10-9-7-----------------10-9-7------------------|

|---------------------------------------------------------------------------|

|---------------------------------------------------------------------------|

|---------------------------------------------------------------------------|

 

Verse (Guitar 2)

|------------------------------------------------------------------|

|------------------------------------------------------------------|

|------------------------------------------------------------------|

|------------------------------------------------------------------|

|-5555555555555555555555555555555544444444444444444444444444444444-|

|------------------------------------------------------------------|

 

|----------------------------------------------------------------|

|----------------------------------------------------------------|

|----------------------------------------------------------------|

|----------------------------------------------------------------|

|-10101010101010101010101010101010101010101010101010101010-8-7-6-|

|----------------------------------------------------------------|

 

|----------------------------------|

|----------------------------------|

|----------------------------------|

|----------------------------------|

|-66666666666666666666666666666666-|

|----------------------------------|

 

|-------------------------------------|

|-------------------------------------|

|-------------------------------------|

|-------------------------------------|

|-5555/8\5-5555/8\5-5555/8\5-5555/8\5-|

|-------------------------------------|

 

|-------------------------------------|

|-------------------------------------|

|-------------------------------------|

|-------------------------------------|

|-4444/7\4-4444/7\4-4444/7\4-4444/7\4-|

|-------------------------------------|

 

|-----------------------------------------|

|-----------------------------------------|

|-----------------------------------------|

|-----------------------------------------|

|-8888/11\8-8888/11\8-8888/11\8-8888/11\8-|

|-----------------------------------------|

 

|-------------------------------------|

|-------------------------------------|

|-------------------------------------|

|-------------------------------------|

|-6666/9\6-6666/9\6-6666/9\6-6666/9\6-|

|-------------------------------------|

 

Chorus

|---------------------------------------------------------------|

|---------------------------------------------------------------|

|-----------------------------3-3-2-2-3-3-2-2-3-3-2-2-3-3-2-----|

|-0------0------0------0------1-1-0-0-1-1-0-0-1-1-0-0-1-1-0-----|

|-0-XXXX-0-XXXX-0-XXXX-0-XXXX-1-1-0-0-1-1-0-0-1-1-0-0-1-1-0--8\-|

|-0-XXXX-0-XXXX-0-XXXX-0-XXXX-1-1-0-0-1-1-0-0-1-1-0-0-1-1-0--8\-|

 

|-----------------------------|

|-----------------------------|

|-----------------------------|

|-0------0------0------0------|

|-0-XXXX-0-XXXX-0-XXXX-0-XXXX-|

|-0-XXXX-0-XXXX-0-XXXX-0-XXXX-|

 

Chorus End

|---------------|

|---------------|

|---------------|

|-0-0-0-0-0-0-0-|

|-0-0-0-0-0-0-0-|

|-0-0-0-0-0-0-0-|

 

Interlude

|------------------------------------|

|-----10-9---10-12-13----------------|

|------9-8----9-11-12----------------|

|-0----7-6----7--9-10---3-2--2--2--2-|

|-0----7-6----7--9-10---3-2--2--2--2-|

|-0----7-6----7--9-10---3-2--2--2--2-|

 

Outro

|--------------------------------|

|--------------------------------|

|------------------3-3-2-2-3-3-2-|

|-0-0-0-0-0-0-0-0--1-1-0-0-1-1-0-|

|-0-0-0-0-0-0-0-0--1-1-0-0-1-1-0-|

|-0-0-0-0-0-0-0-0--1-1-0-0-1-1-0-|

 

 

Return to my System of a Down tabs page

The Tablature is Copyright its respective owners.

Sign Up For My Newsletter
Subscribe | Unsubscribe

Site Map | Disclaimer | Privacy Policy | Media Kit | Submissions/Corrections

Website © 2000-2014 mattsmusicpage.com. All rights reserved.

Legal & DMCA: Matt's Music Page has been providing lyrics and tabs in a legal way, paying royalties each year to a few organizations. Then, all lyrics and tabs were removed from the site. Now, there's a new owner to the site, which purchased it August 26, 2014, and he is in negotiation to obtain licensing from BMI at the moment. If you have a specific DMCA request -- please do not hesitate to contact me via the contact button on top. I will do my very best to keep this site fully legal.

Get our toolbar!

 

Starbucks You Are Here Coffee Mug/Cup KENTUCKY - Horses, Banjo, Blue, White
$19.99
Starbucks You Are Here Coffee Mug/Cup KENTUCKY - Horses, Banjo, Blue, White picture


KNOWLES ROCKWELL HERITAGE "THE BANJO PLAYER" FIRST EDITION 1989 PLATE COA
$5.99
KNOWLES ROCKWELL HERITAGE


Vintage Postcard 1981 Disney World Banjo Kings Main Street USA 1981 Postmark
$4.99
 Vintage Postcard 1981 Disney World Banjo Kings Main Street USA 1981 Postmark picture


Banjo Barometer With Thermometer Hygrometer 490mm
$84.76
Banjo Barometer With Thermometer Hygrometer 490mm picture


ANTIQUE JAPANESE NIPPON FIGURINE SET OF 3 WOMEN GEISHA PLAYING DRUM BANJO FAN
$24.0
ANTIQUE JAPANESE NIPPON FIGURINE SET OF 3 WOMEN GEISHA PLAYING DRUM BANJO FAN picture