Your One-Stop Source For
Music Lyrics
Bass and Guitar Tabs
and More...
Music Lyrics Bass and Guitar Tabs

 

The Tabs Are Below

Learn To Read Tab
Chords Handbook
Corrections & Additions
Get Official Tab
SOAD tabs @ 911Tabs

Artist: System of a Down

Song: Needles

Album: Toxicity

Tabbed by: -corruptionangl-

http://corruptionangel.homestead.com/

 

Tuning: standard SOAD tuning

 

Intro/Outro

F|-------------------------------------------

C|-------------------------------------------

G|-------------------------------------------

C|--5>---0>---5>---0>------------------------

 

Verse

F|-------------------------------|-----------

C|-------------------------------|-----------

G|-------------------------------|-----------

C|-5-6-5-6-5-6-5-6-5-6-5-6-------|----5>-----

 

Pre-Chorus

F|-------------------------------------------

C|-------------------------------------------

G|-------------------------------------------

C|-----5-----0-------66666666----------------

 

Chorus

F|-------------------------------------------

C|-------------------------------------------

G|-------------------------------------------

C|----55-33-666-5----------------------------

 

Bridge

F|-------------------------------------------

C|-------------------------------------------

G|-------------------------------------------

C|----5--------1---------4---------0---------

 

 

Downloaded from www.taborama.com

 

================================================================================

 

 

Artist: System of a Down

Song: Needles

Album: Toxicity

Tabbed by: Toi-MaSHeeN

superpunkygd@hotmail.com

 

Tuning: CGCF

> - Play several times(go along with the cd)

 

Intro/Outro(after guitar solo)

F|-------------------------------------------

C|-------------------------------------------

G|-------------------------------------------

C|--5>---0>---5>---0>------------------------

 

Verse "I cannot disguise(deny) variation

F|-------------------------------|-----------

C|-------------------------------|-----------

G|-------------------------------|-----------

C|-4-5-4-5-4-5-4-5-4-5-4-5-------|----5>-----

 

Pre-Chorus

"and you, my tapeworm tells me what to do"

F|-------------------------------------------

C|------------------------------------------- (x2)

G|-------------------------------------------

C|----55-----00------33333333----------------

 

Chorus

"Pull the tapeworm out of your ass"

F|-------------------------------------------

C|-------------------------------------------

G|-------------------------------------------

C|----55-33-666-5----------------------------

 

Bridge

"Pull the tapeworm out of me"

F|-------------------------------------------

C|-------------------------------------------

G|-------------------------------------------

C|----5--------0---------3---------0---------

 

Order:

Intro

Verse

Pre-Chorus

Chorus

Intro

Verse

Pre-Chorus

Chorus

Bridge

Intro

Pre-Chorus

Chorus

Outro

 

This is my first tab, I actually just remade it cuz I found

a couple of mistakes myself inthe chorus and the pre-chorus,

but it should pretty much be right, if it's not,

please writeme at: superpunkygd@hotmail.com

 

 

Return to my System of a Down bass tabs page

The Tablature is Copyright its respective owners.

Sign Up For My Newsletter
Subscribe | Unsubscribe

Site Map | Disclaimer | Privacy Policy | Media Kit | Submissions/Corrections

Website © 2000-2014 mattsmusicpage.com. All rights reserved.

Legal & DMCA: Matt's Music Page has been providing lyrics and tabs in a legal way, paying royalties each year to a few organizations. Then, all lyrics and tabs were removed from the site. Now, there's a new owner to the site, which purchased it August 26, 2014, and he is in negotiation to obtain licensing from BMI at the moment. If you have a specific DMCA request -- please do not hesitate to contact me via the contact button on top. I will do my very best to keep this site fully legal.

Get our toolbar!

 

VINTAGE SORRENTO MUSIC JEWELRY BOX
$45.0
VINTAGE SORRENTO MUSIC JEWELRY BOX picture


VINTAGE LACQUERED MUSIC BOX JAPAN
$25.99
VINTAGE LACQUERED MUSIC BOX JAPAN picture


Vintage Kehlsteinhaus Bavaria Germany Colorscope Cow Bell View Master Music Box
$8.99
Vintage Kehlsteinhaus Bavaria Germany Colorscope Cow Bell View Master Music Box picture


VINTAGE SCHMIDT Signed Collectible Musical Turning Clown
$9.99
VINTAGE  SCHMIDT Signed Collectible Musical Turning Clown picture


Vintage - Linen - Postcard - Stage - Radio City Music Hall - New York City
$3.75
Vintage - Linen - Postcard - Stage - Radio City Music Hall - New York City   picture