Your One-Stop Source For
Music Lyrics
Bass and Guitar Tabs
and More...
Music Lyrics Bass and Guitar Tabs

 

The Tabs Are Below

Learn To Read Tab
Chords Handbook
Corrections & Additions
Get Official Tab
SOAD tabs @ 911Tabs

System of a Down - Mr. Jack

Tabbed by Andy

 

Credit to lewski for laying down the basic notes, and Bill Symonds for most of

the tab. I have changed a few things, like the Intro, I’m 99% sure is on F, not

G like I’ve seen, just doesn’t sound right.

 

Symbols:

/ - slide

h - hammer on

p - pull off

 

 

Intro:

 

F|--10/9-9-7-7-87---5-5-7-7-87--|-7----|

C|------------------------------|------| 9x

G|------------------------------|------|

C|-0-------------0--------------|------|

 

Chorus and Verse:

 

F|-----------------------------------------------|

C|-----------------------------------------------|

G|-----------------------------------------------|

C|-0---7---3---7h8p7h8p7-0---7---3---7h8p7-------| x18 (I think)

 

Bridge 1: After 2 times just guitar

 

F|-------|

C|-------|

G|-------|

C|-0-----|x 4

 

 

Bridge 2:

 

F|--------------------------------|

C|--------------------------------| 4x

G|--------------------------------|

C|-00--77--88--77--00--77--88--77-|

 

Bridge 3: insane chugging

 

F|--------------------------|

C|--------------------------| 4x

G|--------------------------|

C|-222222000000222222000000-|

 

Outro:

 

F|---------------------|

C|---------------------| 4x

G|---------------------|

C|-0-000-7-7-3-333-8-8-|

 

End:

 

F|-------------------------------|---------------------|

C|-------------------------------|---------------------|

G|-------------------------------|---------------------|

C|0-7-3-8-0-3-7-8-0-7-3-8-0-7-3-8|-0-000-7-7-3-333-8-8-|

 

 

Downloaded from www.taborama.com

 

================================================================================

 

 

 

System of a Down - Mr. Jack

Tabbed by Bill Symonds

drknbastrd@hotmail.com

 

credit to lewski for laying down the basic notes

 

Symbols:

/ - slide

h - hammer on

p - pull off

 

 

Intro:

lewski's tab had it a little lower, it sound better on

last time

F|------------------------------------------------------------|------|

C|------------------------------------------------------------|------| 9x

G|---15p14---14p12---12---12-13-12---10---10---12---12---12---|---12-|

C|-0-------0-------0----0----------0----0----0----0----0----0-|-0----|

 

Chorus and Verse:

 

F|-------------------------------------------------|

C|-------------------------------------------------| bunch of times

G|-------------------------------------------------|

C|-0---7---3---7h8p7h8p7-0---7---3---7h8p7h8-------|

 

Bridge 1: rest 6 measures

 

Bridge 2:

 

F|--------------------------------|

C|--------------------------------| 4x

G|--------------------------------|

C|-00--77--88--77--00--77--88--77-|

 

Bridge 3: insane chugging

 

F|--------------------------|

C|--------------------------| 4x

G|--------------------------|

C|-222222000000222222000000-|

 

Outro:

 

F|---------------------|

C|---------------------| 4x

G|---------------------|

C|-0-000-7-7-3-333-8-8-|

 

End:

 

F|-------------------------------|---------------------|

C|-------------------------------|---------------------|

G|-------------------------------|---------------------|

C|0-7-3-8-0-3-7-8-0-7-3-8-0-7-3-8|-0-000-7-7-3-333-8-8-|

 

 

Return to my System of a Down bass tabs page

The Tablature is Copyright its respective owners.

Sign Up For My Newsletter
Subscribe | Unsubscribe

Site Map | Disclaimer | Privacy Policy | Media Kit | Submissions/Corrections

Website © 2000-2014 mattsmusicpage.com. All rights reserved.

Legal & DMCA: Matt's Music Page has been providing lyrics and tabs in a legal way, paying royalties each year to a few organizations. Then, all lyrics and tabs were removed from the site. Now, there's a new owner to the site, which purchased it August 26, 2014, and he is in negotiation to obtain licensing from BMI at the moment. If you have a specific DMCA request -- please do not hesitate to contact me via the contact button on top. I will do my very best to keep this site fully legal.

Get our toolbar!

 

1983 SEALED LP Return of the Jedi + 1977 Star Wars Vinyl 2 Record Set - Sci-Fi
$22.5
1983 SEALED LP Return of the Jedi + 1977 Star Wars Vinyl 2 Record Set - Sci-Fi picture


Frank Sinatra - Swingin Lovers & Sept of My Years (Reprise)[LP-Vinyl] RECORDS
$10.0
Frank Sinatra - Swingin Lovers & Sept of My Years (Reprise)[LP-Vinyl] RECORDS picture


Ion Audio Turntable & Vinyl Record Archiver with USB Connector TTUSB10 - EUC
$59.99
Ion Audio Turntable & Vinyl Record Archiver with USB Connector TTUSB10 - EUC picture


Vintage 1975 LP Big Rig Truckers LP Put the Hammer Down - Vinyl Record
$15.99
Vintage 1975 LP Big Rig Truckers LP Put the Hammer Down - Vinyl Record picture


1970`s Sanrio HELLO KITTY Vinyl Record STICKERS Vintage VERY RARE
$0.99
1970`s Sanrio HELLO KITTY Vinyl Record STICKERS Vintage VERY RARE picture