Your One-Stop Source For
Music Lyrics
Bass and Guitar Tabs
and More...
Music Lyrics Bass and Guitar Tabs

 

The Tabs Are Below

Learn To Read Tab
Chords Handbook
Corrections & Additions
Get Official Tab
SOAD tabs @ 911Tabs

Band: System Of A Down

Song: Innervision

Album: unreleased

 

Correction

Tabbed By Michael Hadad (Hadazz@hotmail.com)

Orginal Tab: WhiteThunda128

 

I submitted this tab a while ago, but it never got posted

Anyway the previous tab was close, but had a few mistakes

Tuning:CGCF(low to high)

 

Intro-

(0:00)

If you want u can slide down w/ guitar

F---------

C---------

G---------

C -7\1----

 

F-----------------------------------------------------------

C-----------------------------------------------------------

G-----------------------------------------------------------

C--0---1--0-1-0-1-0-0-0-0---0---1--0-1-0-1-0-0-0-0----------

 

ends when guitar plays main riff alone

 

Verse- After guitar plays main riff once

(0:13)

F---------------------------------------------------------------

C---------------------------------------------------------------

G---------------------------------------------------------------

C-1-1-1-1-3-3-3-3-6--3-3--5-3--1-1-1-1-3-3-3-3-6--3-3--5-3------

 

F---------------------------------------------------------------

C---------------------------------------------------------------

G---------------------------------------------------------------

C-0-0-0-0-5-5-5-5-8--5-5--7-5--0-0-0-0-5-5-5-5-8--5-5--7-5------

 

Prechorus

(0:29)

F------------------------------------

C------------------------------------

G------------------------------------

C-0-0-0-0-0-0-0-0-0-0-0-0-0----------

(start playing open notes quietly then pregressivley get louder)

 

Chorus

(0:32)

F-----------------------------------------------------------------------

C-----------------------------------------------------------------------

G-----------------------------------------------------------------------

C-0--5--7--3--7-5---0--5--7--3--7-5---0--5--7--3--7-5---0--5--7--3--7-5-

Stop when guitar plays main riff alone again

 

 

Verse (0:44)

 

Prechorus(1:01)

 

Chorus(1:04)

 

Bridge(1:24)

F-----------------------------------------------------------------

C-----------------------------------------------------------------

G-----------------------------------------------------------------

C-0---0---0---0--0--0-0-0-0---0--5--7--3--7-5---0--5--7--3--7-5---

 

No bass till 2:04

 

Bridge 2(2:04)

(optional)

F----------------------------------------------------------------------

C----------------------------------------------------------------------

G----------------------------------------------------------------------

C-1--------0---------1---------0---------1---------0--------1--------0-

 

Outro(2:25)

F---------------------------------------------------------

C---------------------------------------------------------

G---------------------------------------------------------

C--1-1--5b^-5b^--3-3--0-3-0-----1-1--5^-5^--3-3--0-3-0-

 

Structure:

 

Intro X 2

Verse X 2

Prechorus X 1

Chorus X 1

Verse X 2

Prechorus X 1

Chorus X 2

Bridge X 3

(optional)bridge 2 X 1

Outro X 1

 

Any questions comments, requests, e-mail to hadazz@hotmail.com

 

 

Return to my System of a Down bass tabs page

The Tablature is Copyright its respective owners.

Sign Up For My Newsletter
Subscribe | Unsubscribe

Site Map | Disclaimer | Privacy Policy | Media Kit | Submissions/Corrections

Website © 2000-2014 mattsmusicpage.com. All rights reserved.

Legal & DMCA: Matt's Music Page has been providing lyrics and tabs in a legal way, paying royalties each year to a few organizations. Then, all lyrics and tabs were removed from the site. Now, there's a new owner to the site, which purchased it August 26, 2014, and he is in negotiation to obtain licensing from BMI at the moment. If you have a specific DMCA request -- please do not hesitate to contact me via the contact button on top. I will do my very best to keep this site fully legal.

Get our toolbar!

 

VINTAGE SORRENTO MUSIC JEWELRY BOX
$45.0
VINTAGE SORRENTO MUSIC JEWELRY BOX picture


VINTAGE LACQUERED MUSIC BOX JAPAN
$25.99
VINTAGE LACQUERED MUSIC BOX JAPAN picture


Vintage Kehlsteinhaus Bavaria Germany Colorscope Cow Bell View Master Music Box
$8.99
Vintage Kehlsteinhaus Bavaria Germany Colorscope Cow Bell View Master Music Box picture


VINTAGE SCHMIDT Signed Collectible Musical Turning Clown
$9.99
VINTAGE  SCHMIDT Signed Collectible Musical Turning Clown picture


Vintage - Linen - Postcard - Stage - Radio City Music Hall - New York City
$3.75
Vintage - Linen - Postcard - Stage - Radio City Music Hall - New York City   picture