Your One-Stop Source For
Music Lyrics
Bass and Guitar Tabs
and More...
Music Lyrics Bass and Guitar Tabs

 

The Tabs Are Below

Learn To Read Tab
Chords Handbook
Corrections & Additions
Get Official Tab
SOAD tabs @ 911Tabs

Song: Highway song (4-string & 5-string-version)

Album: Steal this album (2002)

Tabbed by: Bassic (Bonn/Germany)

Mail: janbass@web.de

 

F -----------------------------I

C -----------------------------I (2x)

G -----------------------------I

C -0-0----0-0----0-0----0-0----I

 

F ---------------------------------I

C ---------------------------------I (4x)

G ---------------------------------I

C -0-0-000-0-0-000-0-0-000-0-0-000-I

 

 

verse (0:19)

F --------------------------------------------------------------------I

C --------------------------------------------------------------------I

G 5-5-5-5-5-5-5-55-4-4-4-4-4-4-4-44-0-0-0-0-0-0-0-00-3-3-3-3-3-3-3-33-I

c --------------------------------------------------------------------I

 

F --------------------------------------------------------------------I

C --------------------------------------------------------------------I

G 5-555555-5-55--554-444444-4-4444440-000000-0-0000003-33333333333333-I

C --------------------------------------------------------------------I

 

 

refrain A (0:44)

F --------------------------------------------------------------------I

C ----3--------3-------2--------2------------------------2--------2---I

G 5-5---55--555--5-4-4---44--444--4-0-0-3-00--0003-0-3-3---33--333--3-I

C --------------------------------------------------------------------I

 

F --------------------------------------------------------------------I

C ----3--------3-------2--------2-------------------------------------I

G 5-5---55--555--5-4-4---44--444--4-0-0-3-00--0003-0-3---3---3---3----I

C --------------------------------------------------------------------I

 

 

verse with minimal variation (0:58)

F --------------------------------------------------------------------I

C --------------------------------------------------------------------I

G 5-5-5-5-5-5-5-55-4-4-4-4-4-4-4-44-0-0-0-0-0-0-0-00-3-3-3-3-3-3-3-33-I

C --------------------------------------------------------------------I

 

F --------------------------------------------------------------------I

C --------------------------------------------------------------------I

G 5-555555-5-5555554-444444-4-4444440-000000-0-0000003-33333333333333-I

C --------------------------------------------------------------------I

 

refrain A (1:25) 2x

 

bridge (1:51)

F --------------------------------------------------------------------I

C --------------------------------------------------------------------I

G 5-5-5-55--5555-5-4-4-4-44--4444-4-0-0-0-00--0000-0-3-3-3-33--3333-3-I

C --------------------------------------------------------------------I

 

F 7-7-7-77--7777-7-6-6-6-66--6666-6------------------5-5-5-55--5555-5-I

C ----------------------------------7-7-7-77--7777-7------------------I

G --------------------------------------------------------------------I

C --------------------------------------------------------------------I

 

F -----------------------------I

C -----------------------------I

G -----------------------------I

C -0-0----0-0----0-0----0-0----I

 

F -----------------------------------------------------------------I

C -----------------------------------------------------------------I

G -----------------------------------------------------------------I

C -0-0-000-0-0-000-0-0-000-0-0-000-0-0-000-0-0-000-0-0-000-0-0-0-0-I

 

 

refrain B (2:14)

F -----------------------------------------------------------------I

C -----------------------------------------------------------------I (2x)

G ----------------4---------------0---------------3----------------I

C -0---------------------------------------------------------------I

 

F ----------------------------------------------------------------I

C ----------------------------------------------------------------I (2x)

G ----------------4-4-444-4-4-444-0-0-000-0-0-000-3-3-333-3-3-333-I

C 0-0-000-0-0-000-------------------------------------------------I

 

 

 

F 7-7-7-77--7777-7-6-6-6-66--6666-6------------------5-5-5-55--5555-5-I

C ----------------------------------7-7-7-77--7777-7------------------I

G --------------------------------------------------------------------I

C --------------------------------------------------------------------I

 

F --------------------------------------------------------------------I

C --------------------------------------------------------------------I

G 5-5-5-55--5555-5-4-4-4-44--4444-4-0-0-0-00--0000-0-3-3-3-33--3333-3-I

C --------------------------------------------------------------------I

 

F --------------------------------------------------------------------I

C --------------------------------------------------------------------I

G --------------------------------------------------------------------I

C -0-0-000-0-0-000-0-0-000-0-0-000-0-0-000-0-0-000-0-0-000-0-0-0------I

 

 

=======================================================================

5-string-version:

 

G -----------------------------I

D -----------------------------I

A -----------------------------I (2x)

E -----------------------------I

B -1-1----1-1----1-1----1-1----I

 

G ---------------------------------I

D ---------------------------------I

A ---------------------------------I (4x)

E ---------------------------------I

B -1-1-111-1-1-111-1-1-111-1-1-111-I

 

 

verse (0:19)

G --------------------------------------------------------------------I

D --------------------------------------------------------------------I

A 3-3-3-3-3-3-3-33-2-2-2-2-2-2-2-22------------------1-1-1-1-1-1-1-11-I

E ----------------------------------3-3-3-3-3-3-3-33------------------I

B --------------------------------------------------------------------I

 

G --------------------------------------------------------------------I

D --------------------------------------------------------------------I

A 3-333333-3-33--332-222222-2-222222-----------------1-11111111111111-I

E ----------------------------------3-333333-3-333333-----------------I

B --------------------------------------------------------------------I

 

 

refrain A (0:44)

G --------------------------------------------------------------------I

D --------------------------------------------------------------------I

A 3-3-6-33--3336-3-2-2-5-22--2225-2----------------------5--------5---I

E ----------------------------------3-3-6-33--3336-3-6-6---66--666--6-I

B --------------------------------------------------------------------I

 

G --------------------------------------------------------------------I

D --------------------------------------------------------------------I

A 3-3-6-33--3336-3-2-2-5-22--2225-2-----------------------------------I

E ----------------------------------3-3-6-33--3336-3-6---6---6---6----I

B --------------------------------------------------------------------I

 

 

verse with minimal variation (0:58)

G --------------------------------------------------------------------I

D --------------------------------------------------------------------I

A 3-3-3-3-3-3-3-33-2-2-2-2-2-2-2-22------------------1-1-1-1-1-1-1-11-I

E ----------------------------------3-3-3-3-3-3-3-33------------------I

B --------------------------------------------------------------------I

 

G --------------------------------------------------------------------I

D --------------------------------------------------------------------I

A 3-333333-3-3333332-222222-2-222222-----------------1-11111111111111-I

E ----------------------------------3-333333-3-333333-----------------I

B --------------------------------------------------------------------I

 

refrain A (1:25) 2x

 

bridge (1:51)

G --------------------------------------------------------------------I

D --------------------------------------------------------------------I

A 3-3-3-33--3333-3-2-2-2-22--2222-2------------------1-1-1-11--1111-1-I

E ----------------------------------3-3-3-33--3333-3------------------I

B --------------------------------------------------------------------I

 

G 5-5-5-55--5555-5-4-4-4-44--4444-4------------------3-3-3-33--3333-3-I

D ----------------------------------5-5-5-55--5555-5------------------I

A --------------------------------------------------------------------I

E --------------------------------------------------------------------I

B --------------------------------------------------------------------I

 

G -----------------------------I

D -----------------------------I

A -----------------------------I

E -----------------------------I

B -1-1----1-1----1-1----1-1----I

 

G -----------------------------------------------------------------I

D -----------------------------------------------------------------I

A -----------------------------------------------------------------I

E -----------------------------------------------------------------I

B -1-1-111-1-1-111-1-1-111-1-1-111-1-1-111-1-1-111-1-1-111-1-1-1-1-I

 

 

refrain B (2:14)

G -----------------------------------------------------------------I

D -----------------------------------------------------------------I (2x)

A -----------------2-------------------------------1---------------I

E ---------------------------------3-------------------------------I

B -1---------------------------------------------------------------I

 

G ----------------------------------------------------------------I

D ----------------------------------------------------------------I (2x)

A ----------------2-2-222-2-2-222-----------------1-1-111-1-1-111-I

E --------------------------------3-3-333-3-3-333-----------------I

B 1-1-111-1-1-111-------------------------------------------------I

 

 

 

G 5-5-5-55--5555-5-4-4-4-44--4444-4------------------3-3-3-33--3333-3-I

D ----------------------------------5-5-5-55--5555-5------------------I

A --------------------------------------------------------------------I

E --------------------------------------------------------------------I

B --------------------------------------------------------------------I

 

G --------------------------------------------------------------------I

D --------------------------------------------------------------------I

A 3-3-3-33--3333-3-2-2-2-22--2222-2------------------1-1-1-11--1111-1-I

E ----------------------------------3-3-3-33--3333-3------------------I

B --------------------------------------------------------------------I

 

G --------------------------------------------------------------------I

D --------------------------------------------------------------------I

A --------------------------------------------------------------------I

E --------------------------------------------------------------------I

B -1-1-111-1-1-111-1-1-111-1-1-111-1-1-111-1-1-111-1-1-111-1-1-1------I

 

 

Feedback, replenishment & corrections welcome!!

 

 

Return to my System of a Down bass tabs page

The Tablature is Copyright its respective owners.

Sign Up For My Newsletter
Subscribe | Unsubscribe

Site Map | Disclaimer | Privacy Policy | Media Kit | Submissions/Corrections

Website © 2000-2014 mattsmusicpage.com. All rights reserved.

Legal & DMCA: Matt's Music Page has been providing lyrics and tabs in a legal way, paying royalties each year to a few organizations. Then, all lyrics and tabs were removed from the site. Now, there's a new owner to the site, which purchased it August 26, 2014, and he is in negotiation to obtain licensing from BMI at the moment. If you have a specific DMCA request -- please do not hesitate to contact me via the contact button on top. I will do my very best to keep this site fully legal.

Get our toolbar!

 

Starbucks You Are Here Coffee Mug/Cup KENTUCKY - Horses, Banjo, Blue, White
$19.99
Starbucks You Are Here Coffee Mug/Cup KENTUCKY - Horses, Banjo, Blue, White picture


KNOWLES ROCKWELL HERITAGE "THE BANJO PLAYER" FIRST EDITION 1989 PLATE COA
$5.99
KNOWLES ROCKWELL HERITAGE


Vintage Postcard 1981 Disney World Banjo Kings Main Street USA 1981 Postmark
$4.99
 Vintage Postcard 1981 Disney World Banjo Kings Main Street USA 1981 Postmark picture


Banjo Barometer With Thermometer Hygrometer 490mm
$84.76
Banjo Barometer With Thermometer Hygrometer 490mm picture


ANTIQUE JAPANESE NIPPON FIGURINE SET OF 3 WOMEN GEISHA PLAYING DRUM BANJO FAN
$24.0
ANTIQUE JAPANESE NIPPON FIGURINE SET OF 3 WOMEN GEISHA PLAYING DRUM BANJO FAN picture