Your One-Stop Source For
Music Lyrics
Bass and Guitar Tabs
and More...
Music Lyrics Bass and Guitar Tabs

 

The Tabs Are Below

Learn To Read Tab
Chords Handbook
Corrections & Additions
Get Official Tab
SOAD tabs @ 911Tabs

Artist: System Of A Down

Album: Toxicity

 

Forest - Bass Tab

 

Drop C Tuning: C G C F

 

This is what I hear when I listen to forest. I think

I am pretty close, but if not, it still sounds good.

If you have any suggestions, corrections, comments,

general life concerns or just random words:

useyour_fingers@yahoo.co.uk

I would like to hear your comments :D

 

Here we go, drop c, maybe use a pick, and don't forget backing vocals...

 

Introduction:

F|------------------------------------------------|

C|------------------------------------------------|

G|-5---5-5-5---6---6-6-6---7---7-7-7---8---8-8-8--|

C|------------------------------------------------|.....x2

 

Riff 1 (Distored guitar part):

Note: four F#-E and then four E-F#. Don't listen too closely, you'll go mad.

F|---------------------------------------------------------------------------------------|

C|---------------------------------------------------------------------------------------|

G|---------------------------------------------------------------------------------------|

C|-00-0-6-4---00-0-6-4---00-0-6-4---00-0-6-4---00-0-4-6---00-0-4-6---00-0-4-6---00-0-4-6-|

 

Riff 2 (Palm muted guitar part):

F|-----------------------------------------------------------------------|

C|-----------------------------------------------------------------------|

G|-----------------------------------------------------------------------|

C|-0-06-4---0-06-4---0-06-4---0-06-4---0-04-6---0-04-6---0-04-6---0-04-6-|

 

 

 

Verse Fig 1:

 

"Walk with me my little child.."

F|-----------------------------------| then F|-----------------------------------|

C|-----------------------------------| C|-----------------------------------|

G|-5-5-5-5-5-5-5-5---6-6-6-6-6-6-6-6-| G|-----------------------------------|

C|-----------------------------------| C|-0-06-4---0-06-4---0-06-4---0-06-4-|

 

 

"Through the forest of denial"

F|-----------------------------------| then F|-----------------------------------|

C|-----------------------------------| C|-----------------------------------|

G|-6-6-6-6-6-6-6-6---7-7-7-7-7-7-7-7-| G|-----------------------------------|

C|-----------------------------------| C|-0-04-6---0-04-6---0-04-6---0-04-6-|

 

 

"Speak with me my only mind"

F|-----------------------------------| then F|-----------------------------------|

C|-----------------------------------| C|-----------------------------------|

G|-5-5-5-5-5-5-5-5---6-6-6-6-6-6-6-6-| G|-----------------------------------|

C|-----------------------------------| C|-0-06-4---0-06-4---0-06-4---0-06-4-|

 

 

"Walk with me until the time.."

F|-----------------------------------------------------------------------|

C|-----------------------------------------------------------------------|

G|-6-6-6-6-6-6-6-6---7-7-7-7-7-7-7-7---8-8-8-8-8-8-8-8---9-9-9-9-9-9-9-9-|

c|-----------------------------------------------------------------------|

 

 

"You take the legend for a fall"

F|-------------------------------------------------------|

C|-------------------------------------------------------|

G|-6---6---6---6-----7---7---7---7-----8---8---8---8-----|

c|-------------------------------------------------------|

 

 

 

Chorus Fig 1:

"Why can't you see that you are"

F|------------------------------|

C|------------------------------|

G|------------------------------|

C|-8-10-8-7-5-4-0-0---1-1---5-5-|.....x4

 

 

 

Then:

F|--------------|

C|--------------|

G|--------------|

C|-8-10-8-7-5-4-|

 

Riff 2 Again:

F|-----------------------------------------------------------------------|

C|-----------------------------------------------------------------------|

G|-----------------------------------------------------------------------|

C|-0-06-4---0-06-4---0-06-4---0-06-4---0-04-6---0-04-6---0-04-6---0-04-6-|

 

 

 

Second Verse w/verse Fig 1 - "Walk with me my little friend"

 

 

 

Chorus Fig 1:

"Why can't you see"

F|------------------------------|

C|------------------------------|

G|------------------------------|

C|-8-10-8-7-5-4-0-0---1-1---5-5-|.....x4

 

 

 

Bridge:

F|-------------|

C|-------------|

G|-------------|

C|-8-8-8-8-7-5-|......x3

 

Riff 2

F|-----------------------------------------------------------------------|

C|-----------------------------------------------------------------------|

G|-----------------------------------------------------------------------|

C|-0-06-4---0-06-4---0-06-4---0-06-4---0-04-6---0-04-6---0-04-6---0-04-6-|

 

F|---------------------------|

C|---------------------------|

G|---------------6-6-6-6-5---|

C|-8-8-8-8-7-5-------------8-|

 

And Again.

F|-----------------------------------|

C|-----------------------------------|

G|-----------------------------------|

C|-0-06-4---0-06-4---0-06-4---0-06-4-|

 

F|--------------------------------------|

C|--------------------------------------|

G|--------------6-6-6-6-5---8-8-8-8-6-5-|

C|-8-8-8-8-7-5------------8-------------|

 

Guess what?

F|-----------------------------------|

C|-----------------------------------|

G|-----------------------------------|

C|-0-06-4---0-06-4---0-06-4---0-06-4-|

 

F|----------------------------------------------------------------|

C|----------------------------------------------------------------|

G|-8-8-8-8-6-5-10-10-10-10-8-6-11-11-11-11-10-8-13-13-13-13-11-10-|

C|----------------------------------------------------------------|

 

F|----------------------------------------------------------|

C|----------------------------------------------------------|

G|----------------------------------------------------------|

E|-00-00-0000-0--00-00-0000-00--00-00-0000-0--00-00-0000-00-|

 

Cool bit, guitar tacet - "Take this promise"

F|-----------------------------------------------------------------------|

C|-----------------------------------------------------------------------|

G|-5-5-5-5-5-5-5-5---6-6-6-6-6-6-6-6---7-7-7-7-7-7-7-7---8-8-8-8-8-8-8-8-|

c|-----------------------------------------------------------------------|....x3

 

F|-----------------------------------------------------|

C|-----------------------------------------------------|

G|-5-5-5-5-5-5-5-5---6-6-6-6-6-6-6-6---7-7-7-7-7-7-7-7-|

c|-----------------------------------------------------|

 

 

 

"Just look at us now!"

 

 

 

CHorus Fig 1:

"Why can't you see"

F|------------------------------|

C|------------------------------|

G|------------------------------|

C|-8-10-8-7-5-4-0-0---1-1---5-5-|.....x2

 

F|---------------------------------------------------------------|

C|---------------------------------------------------------------|

G|---------------------------------------------------------------|

C|-8-10-8-7-5-4-00-00-0000000-0011-11-1111111-1155-55-5555555-55-|....x2

 

 

Outro:

F|------------------------------|

C|------------------------------|

G|------------------------------|

C|-8-10-8-7-5-4-0R--------------|

 

 

Return to my System of a Down bass tabs page

The Tablature is Copyright its respective owners.

Sign Up For My Newsletter
Subscribe | Unsubscribe

Site Map | Disclaimer | Privacy Policy | Media Kit | Submissions/Corrections

Website © 2000-2014 mattsmusicpage.com. All rights reserved.

Legal & DMCA: Matt's Music Page has been providing lyrics and tabs in a legal way, paying royalties each year to a few organizations. Then, all lyrics and tabs were removed from the site. Now, there's a new owner to the site, which purchased it August 26, 2014, and he is in negotiation to obtain licensing from BMI at the moment. If you have a specific DMCA request -- please do not hesitate to contact me via the contact button on top. I will do my very best to keep this site fully legal.

Get our toolbar!

 

ROLLING STONES ROCK TUMBLER 1977 COMPLETE
$40.0
ROLLING STONES ROCK TUMBLER 1977 COMPLETE picture


VERY SEXY ROLLING STONES BITCH RIDING TONGUE KEYRING/COLLECTABLE-BRIGHT COLORS
$4.86
VERY SEXY ROLLING STONES BITCH RIDING TONGUE KEYRING/COLLECTABLE-BRIGHT COLORS picture


Zippo Rolling Stones Picture 28428 Street Chrome Lighter
$17.86
Zippo Rolling Stones Picture 28428 Street Chrome Lighter picture


ORINGINAL ROLLING STONES 2006 TOUR CIGARETTE CASE
$0.99
ORINGINAL ROLLING STONES 2006 TOUR CIGARETTE CASE picture


The Rolling Stones Turntable Musical Christmas Ornament Plays GIMME SHELTER
$15.0
The Rolling Stones Turntable Musical Christmas Ornament Plays GIMME SHELTER picture