Your One-Stop Source For
Music Lyrics
Bass and Guitar Tabs
and More...
Music Lyrics Bass and Guitar Tabs

 

The Sum 41 Guitar Tabs Are Below

Learn To Read Tab
Chords Handbook
Corrections & Additions
Get Official Tab
Sum 41 tabs @ 911Tabs

WITH ME

Sum 41

Underclass Hero

 

Transcribed by Sergio Sánchez

 

E5 B5 C#5

x799xx x244xx x466xx

 

A5 E5II Gaug

x022xx 022xxx x654xx

 

D#5 F#5 G#5

x688xx x9|11|11xx x11|13|13xx

 

Gtr I (E A D G B e) - Acoustic Guitar (steel)

Gtr II (E A D G B e) - Acoustic Guitar (steel)

Gtr III (E A D G B e) - Overdriven Guitar

Gtr IV (E A D G B e) - Overdriven Guitar

 

Intro

Q=175

3/4

Gtr I

let ring throughout

E Q Q E H. E Q Q E Q Q Q

||------------|-0----------|-----------|-0----------|

||-------0----|------------|------0----|----0-------|

||o-----------|------------|-----------|------------|

||o-2-2-----2-|------------|-----------|------------|

||------------|------------|-2-2-----2-|--------2---|

||------------|------------|-----------|------------|

|

| Gtr II

| E Q Q E Q E E E E E Q Q E Q E E E E

||------------|------------|-----------|------------|

||------------|------------|-----------|------------|

||o-9-9--9--9-|-9--9-9-9-9-|-4-4--4--4-|-4--4-4-4-4-|

||o-9-9--9--9-|-9--9-9-9-9-|-4-4--4--4-|-4--4-4-4-4-|

||--7-7--7--7-|-7--7-7-7-7-|-2-2--2--2-|-2--2-2-2-2-|

||------------|------------|-----------|------------|

 

 

E Q Q E H. E Q Q E Q Q Q

|-----------|-0----------|-----------|----0--------||

|------0----|------------|-----------|-4-----------||

|-----------|------------|------4----|--------4---o||

|-----------|------------|-----------|------------o||

|-4-4-----4-|------------|-0-0-----0-|-------------||

|-----------|------------|-----------|-------------||

|

| E Q Q E Q E E E E E Q Q E Q E E E E

|-----------|------------|-----------|-------------||

|-----------|------------|-----------|-------------||

|-6-6--6--6-|-6--6-6-6-6-|-2-2--2--2-|-2--2-2-2-2-o||

|-6-6--6--6-|-6--6-6-6-6-|-2-2--2--2-|-2--2-2-2-2-o||

|-4-4--4--4-|-4--4-4-4-4-|-0-0--0--0-|-0--0-0-0-0--||

|-----------|------------|-----------|-------------||

 

 

Verse I

E Q Q E H. E Q Q E Q Q Q

||------------|-0----------|-----------|-0----------|

||-------0----|------------|------0----|----0-------|

||o-----------|------------|-----------|------------|

||o-2-2-----2-|------------|-----------|------------|

||------------|------------|-2-2-----2-|--------2---|

||------------|------------|-----------|------------|

|

| E Q Q E Q E E E E E Q Q E Q E E E E

||------------|------------|-----------|------------|

||------------|------------|-----------|------------|

||o-9-9--9--9-|-9--9-9-9-9-|-4-4--4--4-|-4--4-4-4-4-|

||o-9-9--9--9-|-9--9-9-9-9-|-4-4--4--4-|-4--4-4-4-4-|

||--7-7--7--7-|-7--7-7-7-7-|-2-2--2--2-|-2--2-2-2-2-|

||------------|------------|-----------|------------|

 

 

E Q Q E H. E Q Q E Q Q Q

|-----------|-0----------|-----------|----0--------||

|------0----|------------|-----------|-4-----------||

|-----------|------------|------4----|--------4---o||

|-----------|------------|-----------|------------o||

|-4-4-----4-|------------|-0-0-----0-|-------------||

|-----------|------------|-----------|-------------||

|

| E Q Q E Q E E E E E Q Q E Q E E E E

|-----------|------------|-----------|-------------||

|-----------|------------|-----------|-------------||

|-6-6--6--6-|-6--6-6-6-6-|-2-2--2--2-|-2--2-2-2-2-o||

|-6-6--6--6-|-6--6-6-6-6-|-2-2--2--2-|-2--2-2-2-2-o||

|-4-4--4--4-|-4--4-4-4-4-|-0-0--0--0-|-0--0-0-0-0--||

|-----------|------------|-----------|-------------||

 

 

Gtr I

E Q Q E H. E Q Q E Q Q Q

||------------|-0----------|-----------|-0----------|

||-------0----|------------|------0----|----0-------|

||o-----------|------------|-----------|------------|

||o-2-2-----2-|------------|-----------|------------|

||------------|------------|-2-2-----2-|--------2---|

||------------|------------|-----------|------------|

|

| Gtr II

| E Q Q E Q E E E E E Q Q E Q E E E E

||------------|------------|-----------|------------|

||------------|------------|-----------|------------|

||o-9-9--9--9-|-9--9-9-9-9-|-4-4--4--4-|-4--4-4-4-4-|

||o-9-9--9--9-|-9--9-9-9-9-|-4-4--4--4-|-4--4-4-4-4-|

||--7-7--7--7-|-7--7-7-7-7-|-2-2--2--2-|-2--2-2-2-2-|

||------------|------------|-----------|------------|

|

| Gtr III

| H. +H. H. +H.

||--12--------|------------|-11--------|------------|

||------------|------------|-----------|------------|

||o-----------|------------|-----------|------------|

||o-----------|------------|-----------|------------|

||------------|------------|-----------|------------|

||------------|------------|-----------|------------|

 

 

E Q Q E H. E Q Q E Q Q Q

|-----------|-0----------|-----------|----0--------||

|------0----|------------|-----------|-4-----------||

|-----------|------------|------4----|--------4---o||

|-----------|------------|-----------|------------o||

|-4-4-----4-|------------|-0-0-----0-|-------------||

|-----------|------------|-----------|-------------||

|

| E Q Q E Q E E E E E Q Q E Q E E E E

|-----------|------------|-----------|-------------||

|-----------|------------|-----------|-------------||

|-6-6--6--6-|-6--6-6-6-6-|-2-2--2--2-|-2--2-2-2-2-o||

|-6-6--6--6-|-6--6-6-6-6-|-2-2--2--2-|-2--2-2-2-2-o||

|-4-4--4--4-|-4--4-4-4-4-|-0-0--0--0-|-0--0-0-0-0--||

|-----------|------------|-----------|-------------||

|

| H. +H. H. +H.

|-9---------|------------|-7---------|-------------||

|-----------|------------|-----------|-------------||

|-----------|------------|-----------|------------o||

|-----------|------------|-----------|------------o||

|-----------|------------|-----------|-------------||

|-----------|------------|-----------|-------------||

 

 

E Q Q E H. E Q Q E Q Q Q

|-----------|-0----------|-----------|-0----------|

|------0----|------------|------0----|----0-------|

|-----------|------------|-----------|------------|

|-----------|------------|-----------|------------|

|-4-4-----4-|------------|-0-0-----0-|--------0---|

|-----------|------------|-----------|------------|

|

| E Q Q E Q E E E E E Q Q E Q E E E E

|-----------|------------|-----------|------------|

|-----------|------------|-----------|------------|

|-6-6--6--6-|-6--6-6-6-6-|-2-2--2--2-|-2--2-2-2-2-|

|-6-6--6--6-|-6--6-6-6-6-|-2-2--2--2-|-2--2-2-2-2-|

|-4-4--4--4-|-4--4-4-4-4-|-0-0--0--0-|-0--0-0-0-0-|

|-----------|------------|-----------|------------|

|

| H. +H. H. +H.

|-12--------|------------|-7---------|------------|

|-----------|------------|-----------|------------|

|-----------|------------|-----------|------------|

|-----------|------------|-----------|------------|

|-----------|------------|-----------|------------|

|-----------|------------|-----------|------------|

 

 

E Q Q E H. E Q Q E H.

|-----------|-0----------|-----------|-0----------|

|------0----|------------|------0----|------------|

|-----------|------------|-----------|------------|

|-2-2-----2-|------------|-----------|------------|

|-----------|------------|-2-2-----2-|------------|

|-----------|------------|-----------|------------|

|

| E Q Q E Q E E E E E Q Q E H.

|-----------|------------|-----------|------------|

|-----------|------------|-----------|------------|

|-9-9--9--9-|-9--9-9-9-9-|-4-4--4--4-|-4----------|

|-9-9--9--9-|-9--9-9-9-9-|-4-4--4--4-|-4----------|

|-7-7--7--7-|-7--7-7-7-7-|-2-2--2--2-|-2----------|

|-----------|------------|-----------|------------|

|

| H. +H. H. +H.

|-12--------|------------|-11--------|------------|

|-----------|------------|-----------|------------|

|-----------|------------|-----------|------------|

|-----------|------------|-----------|------------|

|-----------|------------|-----------|------------|

|-----------|------------|-----------|------------|

 

 

Chorus

Gtr III

E Q Q E Q E E E E E Q Q E Q E E E E

||------------|------------|-----------|------------|

||------------|------------|-----------|------------|

||o-6-6--6--6-|-6--6-6-6-6-|-2-2--2--2-|-2--2-2-2-2-|

||o-6-6--6--6-|-6--6-6-6-6-|-2-2--2--2-|-2--2-2-2-2-|

||--4-4--4--4-|-4--4-4-4-4-|-0-0--0--0-|-0--0-0-0-0-|

||------------|------------|-----------|------------|

 

 

E Q Q E Q E E E E E Q Q E Q Q Q

|-----------|------------|-----------|-------------||

|-----------|------------|-----------|-------------||

|-----------|------------|-4-4--4--4-|-4--4---4---o||

|-2-2--2--2-|-2--2-2-2-2-|-4-4--4--4-|-5--5---5---o||

|-2-2--2--2-|-2--2-2-2-2-|-2-2--2--2-|-6--6---6----||

|-0-0--0--0-|-0--0-0-0-0-|-----------|-------------||

 

 

E Q Q E Q E E E E E Q Q E Q E E E E

|-----------|------------|-----------|------------|

|-----------|------------|-----------|------------|

|-6-6--6--6-|-6--6-6-6-6-|-2-2--2--2-|-2--2-2-2-2-|

|-6-6--6--6-|-6--6-6-6-6-|-2-2--2--2-|-2--2-2-2-2-|

|-4-4--4--4-|-4--4-4-4-4-|-0-0--0--0-|-0--0-0-0-0-|

|-----------|------------|-----------|------------|

 

 

Gtr I

E Q Q E H. E Q Q E Q H

|-----------|-0----------|-----------|-0----------|

|------0----|------------|------0----|----0-------|

|-----------|------------|-----------|------------|

|-2-2-----2-|------------|-2-2-----2-|------------|

|-----------|------------|-----------|------------|

|-----------|------------|-----------|------------|

|

| Gtr II

| E Q Q E H. E Q Q E H.

|-----------|------------|-----------|------------|

|-----------|------------|-----------|------------|

|-9-9--9--9-|-9----------|-9-9--9--9-|-9----------|

|-9-9--9--9-|-9----------|-9-9--9--9-|-9----------|

|-7-7--7--7-|-7----------|-7-7--7--7-|-7----------|

|-----------|------------|-----------|------------|

|

| Gtr III

|fading out

| H. +H. +H. +H.

|-----------|------------|-----------|------------|

|-----------|------------|-----------|------------|

|-2---------|------------|-----------|------------|

|-2---------|------------|-----------|------------|

|-0---------|------------|-----------|------------|

|-----------|------------|-----------|------------|

 

 

Interlude

Gtr I

E Q Q E H. E Q Q E Q Q Q

|-----------|-0----------|-----------|-0----------|

|------0----|------------|------0----|----0-------|

|-----------|------------|-----------|------------|

|-2-2-----2-|------------|-----------|------------|

|-----------|------------|-2-2-----2-|--------2---|

|-----------|------------|-----------|------------|

|

| Gtr II

| E Q Q E Q E E E E E Q Q E Q E E E E

|-----------|------------|-----------|------------|

|-----------|------------|-----------|------------|

|-9-9--9--9-|-9--9-9-9-9-|-9-9--9--9-|-9--9-9-9-9-|

|-9-9--9--9-|-9--9-9-9-9-|-9-9--9--9-|-9--9-9-9-9-|

|-7-7--7--7-|-7--7-7-7-7-|-7-7--7--7-|-7--7-7-7-7-|

|-----------|------------|-----------|------------|

 

 

E Q Q E H. E Q Q E Q Q Q

|-----------|-0----------|-----------|----0-------|

|------0----|------------|-----------|-4----------|

|-----------|------------|------4----|--------4---|

|-----------|------------|-----------|------------|

|-4-4-----4-|------------|-0-0-----0-|------------|

|-----------|------------|-----------|------------|

|

| E Q Q E Q E E E E E Q Q E Q E E E E

|-----------|------------|-----------|------------|

|-----------|------------|-----------|------------|

|-9-9--9--9-|-9--9-9-9-9-|-9-9--9--9-|-9--9-9-9-9-|

|-9-9--9--9-|-9--9-9-9-9-|-9-9--9--9-|-9--9-9-9-9-|

|-7-7--7--7-|-7--7-7-7-7-|-7-7--7--7-|-7--7-7-7-7-|

|-----------|------------|-----------|------------|

 

 

Verse II

Gtr I

E Q Q E H. E Q Q E Q Q Q

||------------|-0----------|-----------|-0----------|

||-------0----|------------|------0----|----0-------|

||o-----------|------------|-----------|------------|

||o-2-2-----2-|------------|-----------|------------|

||------------|------------|-2-2-----2-|--------2---|

||------------|------------|-----------|------------|

|

| Gtr II

| E Q Q E Q E E E E E Q Q E Q E E E E

||------------|------------|-----------|------------|

||------------|------------|-----------|------------|

||o-9-9--9--9-|-9--9-9-9-9-|-9-9--9--9-|-9--9-9-9-9-|

||o-9-9--9--9-|-9--9-9-9-9-|-9-9--9--9-|-9--9-9-9-9-|

||--7-7--7--7-|-7--7-7-7-7-|-7-7--7--7-|-7--7-7-7-7-|

||------------|------------|-----------|------------|

|

| Gtr III

| fading out

| H. +H. +H. +H.

||------------|------------|-----------|------------|

||------------|------------|-----------|------------|

||o-----------|------------|-----------|------------|

||o-----------|------------|-----------|------------|

||--2---------|------------|-----------|------------|

||--0---------|------------|-----------|------------|

 

 

E Q Q E H. E Q Q E Q Q Q 4x

|-----------|-0----------|-----------|----0--------||

|------0----|------------|-----------|-4-----------||

|-----------|------------|------4----|--------4---o||

|-----------|------------|-----------|------------o||

|-4-4-----4-|------------|-0-0-----0-|-------------||

|-----------|------------|-----------|-------------||

|

| E Q Q E Q E E E E E Q Q E Q E E E E 4x

|-----------|------------|-----------|-------------||

|-----------|------------|-----------|-------------||

|-9-9--9--9-|-9--9-9-9-9-|-9-9--9--9-|-9--9-9-9-9-o||

|-9-9--9--9-|-9--9-9-9-9-|-9-9--9--9-|-9--9-9-9-9-o||

|-7-7--7--7-|-7--7-7-7-7-|-7-7--7--7-|-7--7-7-7-7--||

|-----------|------------|-----------|-------------||

|

| 4x

|-----------|------------|-----------|-------------||

|-----------|------------|-----------|-------------||

|-----------|------------|-----------|------------o||

|-----------|------------|-----------|------------o||

|-----------|------------|-----------|-------------||

|-----------|------------|-----------|-------------||

 

 

E Q Q E H. E Q Q E Q Q Q

|-------------|-0-----------|-------------|-0-----------|

|-------0-----|-------------|-------0-----|-----0-------|

|-------------|-------------|-------------|-------------|

|-4-4-------4-|-------------|-------------|-------------|

|-------------|-------------|-0-0-------0-|---------0---|

|-------------|-------------|-------------|-------------|

|

| E Q Q E Q E E E E E Q Q E Q E E E E

|-------------|-------------|-------------|-------------|

|-------------|-------------|-------------|-------------|

|-6-6---6---6-|-6---6-6-6-6-|-2-2---2---2-|-2---2-2-2-2-|

|-6-6---6---6-|-6---6-6-6-6-|-2-2---2---2-|-2---2-2-2-2-|

|-4-4---4---4-|-4---4-4-4-4-|-0-0---0---0-|-0---0-0-0-0-|

|-------------|-------------|-------------|-------------|

|

| PM----------------------------------------------------|

| E E E E E E E E E E E E E E E E E E E E E E E E

|-------------|-------------|-------------|-------------|

|-------------|-------------|-------------|-------------|

|-6-6-6-6-6-6-|-6-6-6-6-6-6-|-2-2-2-2-2-2-|-2-2-2-2-2-2-|

|-6-6-6-6-6-6-|-6-6-6-6-6-6-|-2-2-2-2-2-2-|-2-2-2-2-2-2-|

|-4-4-4-4-4-4-|-4-4-4-4-4-4-|-0-0-0-0-0-0-|-0-0-0-0-0-0-|

|-------------|-------------|-------------|-------------|

 

 

E Q Q E H. E Q Q E H.

|-------------|-0----------|-------------|-0------------|

|-------0-----|------------|-------0-----|--------------|

|-------------|------------|-------------|--------------|

|-2-2-------2-|------------|-------------|--------------|

|-------------|------------|-2-2-------2-|--------------|

|-------------|------------|-------------|--------------|

|

| E Q Q E Q E E E E E Q Q E H.

|-------------|-------------|-------------|-------------|

|-------------|-------------|-------------|-------------|

|-9-9---9---9-|-9---9-9-9-9-|-4-4---4---4-|-4-----------|

|-9-9---9---9-|-9---9-9-9-9-|-4-4---4---4-|-4-----------|

|-7-7---7---7-|-7---7-7-7-7-|-2-2---2---2-|-2-----------|

|-------------|-------------|-------------|-------------|

|

| PM--------------------------------------|

| E E E E E E E E E E E E E E E E E E H.

|-------------|-------------|-------------|-------------|

|-------------|-------------|-------------|-------------|

|-------------|-------------|-4-4-4-4-4-4-|-4-----------|

|-2-2-2-2-2-2-|-2-2-2-2-2-2-|-4-4-4-4-4-4-|-4-----------|

|-2-2-2-2-2-2-|-2-2-2-2-2-2-|-2-2-2-2-2-2-|-2-----------|

|-0-0-0-0-0-0-|-0-0-0-0-0-0-|-------------|-------------|

 

 

Chorus

Gtr III

E Q Q E Q E E E E E Q Q E Q E E E E

||------------|------------|-----------|------------|

||------------|------------|-----------|------------|

||o-6-6--6--6-|-6--6-6-6-6-|-2-2--2--2-|-2--2-2-2-2-|

||o-6-6--6--6-|-6--6-6-6-6-|-2-2--2--2-|-2--2-2-2-2-|

||--4-4--4--4-|-4--4-4-4-4-|-0-0--0--0-|-0--0-0-0-0-|

||------------|------------|-----------|------------|

 

 

E Q Q E Q E E E E E Q Q E Q Q Q

|-----------|------------|-----------|-------------||

|-----------|------------|-----------|-------------||

|-----------|------------|-4-4--4--4-|-4--4---4---o||

|-2-2--2--2-|-2--2-2-2-2-|-4-4--4--4-|-5--5---5---o||

|-2-2--2--2-|-2--2-2-2-2-|-2-2--2--2-|-6--6---6----||

|-0-0--0--0-|-0--0-0-0-0-|-----------|-------------||

 

 

E Q Q E Q E E E E E Q Q E Q E E E E

|-----------|------------|-----------|------------|

|-----------|------------|-----------|------------|

|-6-6--6--6-|-6--6-6-6-6-|-2-2--2--2-|-2--2-2-2-2-|

|-6-6--6--6-|-6--6-6-6-6-|-2-2--2--2-|-2--2-2-2-2-|

|-4-4--4--4-|-4--4-4-4-4-|-0-0--0--0-|-0--0-0-0-0-|

|-----------|------------|-----------|------------|

 

 

Gtr I

E Q Q E H. E Q Q E Q H

|-----------|-0----------|-----------|-0----------|

|------0----|------------|------0----|----0-------|

|-----------|------------|-----------|------------|

|-2-2-----2-|------------|-2-2-----2-|------------|

|-----------|------------|-----------|------------|

|-----------|------------|-----------|------------|

|

| Gtr II

| E Q Q E H. E Q Q E H.

|-----------|------------|-----------|------------|

|-----------|------------|-----------|------------|

|-9-9--9--9-|-9----------|-9-9--9--9-|-9----------|

|-9-9--9--9-|-9----------|-9-9--9--9-|-9----------|

|-7-7--7--7-|-7----------|-7-7--7--7-|-7----------|

|-----------|------------|-----------|------------|

|

| Gtr III

|fading out PM------|

| H. +H. +H. Q E E E E

|-----------|------------|-----------|------------|

|-----------|------------|-----------|------------|

|-2---------|------------|-----------|----9-9-9-9-|

|-2---------|------------|-----------|----9-9-9-9-|

|-0---------|------------|-----------|----7-7-7-7-|

|-----------|------------|-----------|------------|

 

 

Bridge

Gtr III

E Q Q E Q H E Q Q E Q H

||------------|------------|-----------|------------|

||------------|------------|-----------|------------|

||o-2-2--2--2-|-2----------|-----------|------------|

||o-2-2--2--2-|-2----------|-2-2--2--2-|-2----------|

||--0-0--0--0-|-0----------|-2-2--2--2-|-2----------|

||------------|------------|-0-0--0--0-|-0----------|

|

| Gtr IV

| E Q Q E Q Q Q E Q Q E Q Q Q

||------------|------------|-----------|------------|

||------------|------------|-----------|------------|

||o-9-9--9--8-|-9--9---9---|-9-9--9--8-|-9--9---11--|

||o-9-9--9--8-|-9--9---9---|-9-9--9--8-|-9--9---11--|

||--7-7--7--6-|-7--7---7---|-7-7--7--6-|-7--7---9---|

||------------|------------|-----------|------------|

 

 

E Q Q E Q H E Q Q E Q Q Q

|-----------|------------|---------------|---------------|

|-----------|------------|---------------|---------------|

|-4-4--4--4-|-4----------|-6--6---6---6--|-4---4----4----|

|-4-4--4--4-|-4----------|-6--6---6---6--|-4---4----4----|

|-2-2--2--2-|-2----------|-4--4---4---4--|-2---2----2----|

|-----------|------------|---------------|---------------|

|

| E Q Q E Q Q Q E Q Q E Q Q Q

|-----------|------------|---------------|---------------|

|-----------|------------|---------------|---------------|

|-8-8--8--8-|-8--9---11--|-13-13--13--13-|-11--13---11---|

|-8-8--8--8-|-8--9---11--|-13-13--13--13-|-11--13---11---|

|-6-6--6--6-|-6--7---9---|-11-11--11--11-|-9---11---9----|

|-----------|------------|---------------|---------------|

 

 

E Q Q E Q Q Q E Q Q E Q Q Q

|-----------|----------|-----------|-----------|

|-----------|----------|-----------|-----------|

|-2-2--2--2-|-2--2--2--|-----------|-----------|

|-2-2--2--2-|-2--2--2--|-2-2--2--2-|-2--2--2---|

|-0-0--0--0-|-0--0--0--|-2-2--2--2-|-2--2--2---|

|-----------|----------|-0-0--0--0-|-0--0--0---|

|

| E Q Q E Q Q Q E Q Q E Q Q Q

|-----------|----------|-----------|-----------|

|-----------|----------|-----------|-----------|

|-9-9--9--8-|-9--9--9--|-9-9--9--8-|-9--9--11--|

|-9-9--9--8-|-9--9--9--|-9-9--9--8-|-9--9--11--|

|-7-7--7--6-|-7--7--7--|-7-7--7--6-|-7--7--9---|

|-----------|----------|-----------|-----------|

 

 

E Q Q E Q Q Q E Q Q E Q Q Q

|-----------|------------|---------------|---------------||

|-----------|------------|---------------|---------------||

|-4-4--4--4-|-4--4---4---|-6--6---6---6--|-4---4---4----o||

|-4-4--4--4-|-4--4---4---|-6--6---6---6--|-4---4---4----o||

|-2-2--2--2-|-2--2---2---|-4--4---4---4--|-2---2---2-----||

|-----------|------------|---------------|---------------||

|

| E Q Q E Q Q Q E Q Q E Q Q Q

|-----------|------------|---------------|---------------||

|-----------|------------|---------------|---------------||

|-8-8--8--8-|-8--9---11--|-13-13--13--13-|-11--13--11---o||

|-8-8--8--8-|-8--9---11--|-13-13--13--13-|-11--13--11---o||

|-6-6--6--6-|-6--7---9---|-11-11--11--11-|-9---11--9-----||

|-----------|------------|---------------|---------------||

 

 

Verse I

Gtr I

E Q Q E H. E Q Q E Q Q Q

||------------|-0----------|-----------|-0----------|

||-------0----|------------|------0----|----0-------|

||o-----------|------------|-----------|------------|

||o-2-2-----2-|------------|-----------|------------|

||------------|------------|-2-2-----2-|--------2---|

||------------|------------|-----------|------------|

|

| Gtr II

| E Q Q E Q E E E E E Q Q E Q E E E E

||------------|------------|-----------|------------|

||------------|------------|-----------|------------|

||o-9-9--9--9-|-9--9-9-9-9-|-4-4--4--4-|-4--4-4-4-4-|

||o-9-9--9--9-|-9--9-9-9-9-|-4-4--4--4-|-4--4-4-4-4-|

||--7-7--7--7-|-7--7-7-7-7-|-2-2--2--2-|-2--2-2-2-2-|

||------------|------------|-----------|------------|

|

| Gtr III (fisrt time only)

| fading out

| H. +H. +H. +H.

||------------|------------|-----------|------------|

||------------|------------|-----------|------------|

||o-----------|------------|-----------|------------|

||o-2---------|------------|-----------|------------|

||--2---------|------------|-----------|------------|

||--0---------|------------|-----------|------------|

|

| Gtr IV (first time only)

| fading out

| H. +H. +H. +H.

||------------|------------|-----------|------------|

||------------|------------|-----------|------------|

||o-9---------|------------|-----------|------------|

||o-9---------|------------|-----------|------------|

||--7---------|------------|-----------|------------|

||------------|------------|-----------|------------|

 

____________

Gtr I |1,2

E Q Q E H. E Q Q E Q Q Q

|-----------|-0----------|-----------|----0--------||

|------0----|------------|-----------|-4-----------||

|-----------|------------|------4----|--------4---o||

|-----------|------------|-----------|------------o||

|-4-4-----4-|------------|-0-0-----0-|-------------||

|-----------|------------|-----------|-------------||

| ___________

| Gtr II |1,2

| E Q Q E Q E E E E E Q Q E Q E E E E

|-----------|------------|-----------|-------------||

|-----------|------------|-----------|-------------||

|-6-6--6--6-|-6--6-6-6-6-|-2-2--2--2-|-2--2-2-2-2-o||

|-6-6--6--6-|-6--6-6-6-6-|-2-2--2--2-|-2--2-2-2-2-o||

|-4-4--4--4-|-4--4-4-4-4-|-0-0--0--0-|-0--0-0-0-0--||

|-----------|------------|-----------|-------------||

 

___________

|3.

H. +H. H.

|-----------|------------|-----------|

|-----------|------------|-----------|

|-----------|------------|-----------|

|-----------|------------|-----------|

|-0---------|------------|-----------|

|-----------|------------|-----------|

|___________

|3.

| H. +H. H.

|-----------|------------|-----------|

|-----------|------------|-----------|

|-2---------|------------|-----------|

|-2---------|------------|-----------|

|-0---------|------------|-----------|

|-----------|------------|-----------|

 

 

Outro

Gtr III

E Q Q E Q E E E E E Q Q E Q E E E E

||------------|------------|-----------|------------|

||------------|------------|-----------|------------|

||o-6-6--6--6-|-6--6-6-6-6-|-2-2--2--2-|-2--2-2-2-2-|

||o-6-6--6--6-|-6--6-6-6-6-|-2-2--2--2-|-2--2-2-2-2-|

||--4-4--4--4-|-4--4-4-4-4-|-0-0--0--0-|-0--0-0-0-0-|

||------------|------------|-----------|------------|

 

 

E Q Q E Q E E E E E Q Q E Q Q Q

|-----------|------------|-----------|-------------||

|-----------|------------|-----------|-------------||

|-----------|------------|-4-4--4--4-|-4--4---4---o||

|-2-2--2--2-|-2--2-2-2-2-|-4-4--4--4-|-5--5---5---o||

|-2-2--2--2-|-2--2-2-2-2-|-2-2--2--2-|-6--6---6----||

|-0-0--0--0-|-0--0-0-0-0-|-----------|-------------||

 

 

E Q Q E Q E E E E E Q Q E Q E E E E

||------------|------------|-----------|-------------||

||------------|------------|-----------|-------------||

||o-6-6--6--6-|-6--6-6-6-6-|-2-2--2--2-|-2--2-2-2-2-o||

||o-6-6--6--6-|-6--6-6-6-6-|-2-2--2--2-|-2--2-2-2-2-o||

||--4-4--4--4-|-4--4-4-4-4-|-0-0--0--0-|-0--0-0-0-0--||

||------------|------------|-----------|-------------||

 

E Q Q Q Q E E E E E Q Q E Q Q Q

||-------------|------------|-----------|----------|

||-------------|------------|-----------|----------|

||o------------|------------|-4-4--4--4-|-4--4--4--|

||o-2-2--2--2--|-2--2-2-2-2-|-4-4--4--4-|-5--5--5--|

||--2-2--2--2--|-2--2-2-2-2-|-2-2--2--2-|-6--6--6--|

||--0-0--0--0--|-0--0-0-0-0-|-----------|----------|

 

 

E Q Q E Q E E E E E Q Q E Q E E E E

|-----------|------------|-----------|-------------||

|-----------|------------|-----------|-------------||

|-6-6--6--6-|-6--6-6-6-6-|-2-2--2--2-|-2--2-2-2-2-o||

|-6-6--6--6-|-6--6-6-6-6-|-2-2--2--2-|-2--2-2-2-2-o||

|-4-4--4--4-|-4--4-4-4-4-|-0-0--0--0-|-0--0-0-0-0--||

|-----------|------------|-----------|-------------||

 

 

fading out

H. +H. +H. +H.

|-----------|------------|-----------|------------|

|-----------|------------|-----------|------------|

|-----------|------------|-----------|------------|

|-2---------|------------|-----------|------------|

|-2---------|------------|-----------|------------|

|-0---------|------------|-----------|------------|

Return to my Sum 41 Guitar Tabs page

The Sum 41 Guitar Tablature is Copyright its respective owners.

Sign Up For My Newsletter
Subscribe | Unsubscribe

Site Map | Disclaimer | Privacy Policy | Media Kit | Submissions/Corrections

Website © 2000-2014 mattsmusicpage.com. All rights reserved.

Legal & DMCA: Matt's Music Page has been providing lyrics and tabs in a legal way, paying royalties each year to a few organizations. Then, all lyrics and tabs were removed from the site. Now, there's a new owner to the site, which purchased it August 26, 2014, and he is in negotiation to obtain licensing from BMI at the moment. If you have a specific DMCA request -- please do not hesitate to contact me via the contact button on top. I will do my very best to keep this site fully legal.

Get our toolbar!