Your One-Stop Source For
Music Lyrics
Bass and Guitar Tabs
and More...
Music Lyrics Bass and Guitar Tabs

 

The Tabs Are Below

Learn To Read Tab
Chords Handbook
Corrections & Additions
Get Official Tab
Sum 41 tabs @ 911Tabs

Sum 41

album: spiderman soundtrack

song: what we're all about (kerry king solo)

transcribed by Rudy Guzman

guzman_84@hotmail.com

 

 

solo bar/\/\/\/\/\/\/\/\/\

Eb|-----------------------------------------24b--24b~~~~--|

Bb|-------------------------------------------------------|

F#|-/14-14-14~~~~----0----(0)-----(0)h5NH-----------------|

C#|-------------------------------------------------------|

G#|-------------------------------------------------------|

C#|-------------------------------------------------------|

 

bar/\/\/\/\/\/\/\/\ /\/\/\/\/\/\/\ /\/\/\/\/\/\/\/\/\

Eb|------------------------22---------------------------------------------|

Bb|------0--------------22--------------------------------------9---------|

F#|---0---------------------------------0--(0)-(0)h5NH------13-----12/23\-|

C#|-----------------------------------------------------------------------|

G#|-----------------------------------------------------------------------|

C#|-----------------------------------------------------------------------|

 

 

Eb|-22--22bf--22b~~~--21-22-24-22-21--20-21-23-21-20--19-20-22-20-19-|

Bb|------------------------------------------------------------------|

F#|------------------------------------------------------------------|

C#|------------------------------------------------------------------|

G#|------------------------------------------------------------------|

C#|------------------------------------------------------------------|

 

repeat 2 times

Eb|-18-19-21-19-18----------|-------------------------|---------------------|

Bb|----------------21-19-18-|-------------------------|20----19----18----16-|

F#|-------------------------|----------------20-------|---19----18----17----|

C#|-------------------------|-18----18-20-21----21-20-|---------------------|

G#|-------------------------|----21-------------------|---------------------|

C#|-------------------------|-------------------------|---------------------|

 

i dont like this song but i did the solo cuz i think i´m on a quest to play

every single kerry king or jeff hanneman solo. i use the same tunning as

god hates us all album

 

 

Return to my Sum 41 tabs page

The Tablature is Copyright its respective owners.

Sign Up For My Newsletter
Subscribe | Unsubscribe

Site Map | Disclaimer | Privacy Policy | Media Kit | Submissions/Corrections

Website © 2000-2014 mattsmusicpage.com. All rights reserved.

Legal & DMCA: Matt's Music Page has been providing lyrics and tabs in a legal way, paying royalties each year to a few organizations. Then, all lyrics and tabs were removed from the site. Now, there's a new owner to the site, which purchased it August 26, 2014, and he is in negotiation to obtain licensing from BMI at the moment. If you have a specific DMCA request -- please do not hesitate to contact me via the contact button on top. I will do my very best to keep this site fully legal.

Get our toolbar!