Your One-Stop Source For
Music Lyrics
Bass and Guitar Tabs
and More...
Music Lyrics Bass and Guitar Tabs

 

The Tabs Are Below

Learn To Read Tab
Chords Handbook
Corrections & Additions
Get Official Tab
Sum 41 tabs @ 911Tabs

Artist: Sum 41

Song: We\'re All To Blame

Album: Chuck (out: 10/12/04)

Date: 9/24/04

Tabbed: 41&182 (email: k_89_swift@hotmail.com)

 

Deryck: Half Step Down (Eb Ab Db Gb Bb Eb)

Dave: Drop-D (D A D G B E)

Key of D# minor (B major)

Tempo ~= 165

 

. = palm mute (below note(s))

. = staccato (on top of note(s))

~ = hold note(s)

 

Notes: This is the best tab you\'ll find here! Feel free to distribute this tab WITH MY CONSENT.

If you\'re lazy, just put a capo on the first fret and all the one\'s become open strings!

Missing a melody for the 3rd Chorus.

 

Updates:

 

9/26/04 - Changed some lyrics, added comments, tuning alternatives, some chords.

 

9/27/04 - More things! Gotta watch the video carefully now, eh?

 

9/28/04 - Major changes since I\'ve re-editted the tuning of this song.

 

10/1/04 - Total reformatting. Now seperated into two parts.

 

 

 

==========================================

 

DERYCK - RHYTHM GUITAR (Eb Ab Db Gb Bb Eb)

 

==========================================

 

INTRO (0:03):

Distortion:

D# E D# E D#

Eb|--------------------------------|--------------------------------|

Bb|--------------------------------|--------------------------------|

Gb|9---9-9-9---9-9-9---9-9-10--9---|9---9-9-9---9-9-9---9-9-10--9---|

Db|x---x-x-x---x-x-x---x-x-x---x---|x---x-x-x---x-x-x---x-x-x---x---|

Ab|7---7-7-7---7-7-7---7-7-8---7---|7---7-7-7---7-7-7---7-7-8---7---|

Eb|--------------------------------|--------------------------------|

1 e & a 2 e & a 3 e & a 4 e & a 1 e & a 2 e & a 3 e & a 4 e & a

 

D# E D# B5 A#5 B5 C#5 A#5 B5

Eb|--------------------------------|--------------------------------|

Bb|--------------------------------|--------------------------------|

Gb|9---9-9-9---9-9-9---9-9-10--9---|--------------------------------|

Db|x---x-x-x---x-x-x---x-x-x---x---|10---9----10---12---9----10-----|

Ab|7---7-7-7---7-7-7---7-7-8---7---|10---9----10---12---9----10-----|

Eb|--------------------------------|8----7----8----10---7----8------|

1 e & a 2 e & a 3 e & a 4 e & a 1 e a 3 e a

 

(0:09):

D#5 (m)

Eb|--------------------------------|--------------------------------|

Bb|--------------------------------|--------------------------------|

Gb|------------------------12------|------------------------12------|

Db|2-2-2-2-2-2-2-2-2-------x-------|2-2-2-2-2-2-2-2-2-------x-------|

Ab|2-2-2-2-2-2-2-2-2-------10------|2-2-2-2-2-2-2-2-2-------10------|

Eb|0-0-0-0-0-0-0-0-0---------------|0-0-0-0-0-0-0-0-0---------------|

1 e & a 2 e & a 3 e & a 4 e & a 1 e & a 2 e & a 3 e & a 4 e & a

. . . . . . . . . . . . . . . . . .

B5 A#5 B5 C#5 A#5 B5

Eb|--------------------------------|--------------------------------|

Bb|--------------------------------|--------------------------------|

Gb|------------------------12------|--------------------------------|

Db|2-2-2-2-2-2-2-2-2-------x-------|10---9----10---12---9----10-----|

Ab|2-2-2-2-2-2-2-2-2-------10------|10---9----10---12---9----10-----|

Eb|0-0-0-0-0-0-0-0-0---------------|8----7----8----10---7----8------|

1 e & a 2 e & a 3 e & a 4 e & a 1 e a 3 e a

. . . . . . . . .

B5 A#5 B5 C#5 A#5 B5 D#5

Eb|--------------------------------|--------------------------------|

Bb|--------------------------------|--------------------------------|

Gb|--------------------------------|.-------.-------.-------.-------|

Db|10---9----10---12---9----10-----|2-------2-------2-------2-------|

Ab|10---9----10---12---9----10-----|2-------2-------2-------2-------|

Eb|8----7----8----10---7----8------|0-------0-------0-------0-------|

1 e a 3 e a 1 2 3 4

. . . . . .

 

 

 

1st VERSE (0:18):

N.C.

Eb|--------------------------------|--------------------------------|\\

Bb|--------------------------------|--------------------------------| \\

Gb|--------------------------------|--------------------------------| \\

Db|--------------------------------|--------------------------------| \\

Ab|--------------------------------|--------------------------------| \\

Eb|--------------------------------|--------------------------------| \\

1 e & a 2 e & a 3 e & a 4 e & a 1 e & a 2 e & a 3 e & a 4 e & a \\

|x3,5

D#5 F#5 D#5 F5 D#5 E5 D#5 E5 D#5 E5 /

Eb|--------------------------------|--------------------------------| /

Bb|--------------------------------|--------------------------------| /

Gb|--------------------------------|--------------------------------| /

Db|2-----2-5---2---2-----2-4---2---|2-----2-3---2---2---3---2---3---| /

Ab|2-----2-5---2---2-----2-4---2---|2-----2-3---2---2---3---2---3---| /

Eb|0-----0-3---0---0-----0-2---0---|0-----0-1---0---0---1---0---1---|/

1 e & a 2 e & a 3 e & a 4 e & a 1 e & a 2 e & a 3 e & a 4 e & a

. . . . . . . . . . . . . .

 

D#5 F#5 D#5 F5 D#5 B5 A#5 B5 C#5 A#5 B5

Eb|--------------------------------|--------------------------------|

Bb|--------------------------------|--------------------------------|

Gb|--------------------------------|--------------------------------|

Db|2-----2-5---2---2-----2-4---2---|10---9----10---12---9----10-----|

Ab|2-----2-5---2---2-----2-4---2---|10---9----10---12---9----10-----|

Eb|0-----0-3---0---0-----0-2---0---|8----7----8----10---7----8------|

1 e & a 2 e & a 3 e & a 4 e & a 1 e a 3 e a

. . . . . . . .

 

 

 

1st CHORUS (0:42):

Clean Guitar w/ Tremolo effect

G#m C#m

Eb|0~------------------------------|1~------------------------------|

Bb|1~------------------------------|3~------------------------------|

Gb|2~------------------------------|2~------------------------------|

Db|2~------------------------------|0~------------------------------|

Ab|0~------------------------------|--------------------------------|

Eb|--------------------------------|--------------------------------|

 

F# D#(m)

Eb|3~------------------------------|0~------------------------------|

Bb|3~------------------------------|0~------------------------------|

Gb|0~------------------------------|1~------------------------------|

Db|0~------------------------------|2~------------------------------|

Ab|2~------------------------------|2~------------------------------|

Eb|3~------------------------------|0~------------------------------|

 

(0:48):

G#m C#m F# D#(m)

Eb|0---0---0---0-0-1---1---1---1-0-|3---3---3---3-0-0---0---0---0-0-|\\

Bb|1---1---1---1-0-3---3---3---3-0-|3---3---3---3-0-0---0---0---0-0-| \\

Gb|2---2---2---2-0-2---2---2---2-0-|0---0---0---0-0-1---1---1---1-0-| |Play three times.

Db|2---2---2---2-0-0---0---0---0-0-|0---0---0---0-0-2---2---2---2-0-| |

Ab|0---0---0---0-0-----------------|2---2---2---2-0-2---2---2---2-0-| /

Eb|--------------------------------|3---3---3---3-0-0---0---0---0-0-|/

1 e & a 2 e & a 3 e & a 4 e & a 1 e & a 2 e & a 3 e & a 4 e & a

 

(1:06):

D#(m)

Eb|0-------------------------------|

Bb|0-------------------------------|

Gb|1-------------------------------|

Db|2-------------------random------|

Ab|2-------------------slide-------|

Eb|0-------------------------------|

1 e & a 2 e & a 3 e & a 4 e & a

Distortion:

B5 A#5 B5 C#5 A#5 B5 D#5

Eb|--------------------------------|--------------------------------|

Bb|--------------------------------|--------------------------------|

Gb|--------------------------------|.-------.-------.-------.-------|

Db|10---9----10---12---9----10-----|2-------2-------2-------2-------|

Ab|10---9----10---12---9----10-----|2-------2-------2-------2-------|

Eb|8----7----8----10---7----8------|0-------0-------0-------0-------|

1 e a 3 e a 1 2 3 4

 

 

 

2nd VERSE (1:11):

 

Repeat 1st VERSE.

 

 

 

2nd CHORUS (1:34):

 

Repeat 1st CHORUS. Stop at \"1:06\" and play the below instead (1:59).

 

 

 

BRIDGE (1:59):

G#m E B F#

Eb|0---0---0---0-0-1---1---1---1-0-|0---0---0---0-0-3---3---3---3-0-|

Bb|1---1---1---1-0-1---1---1---1-0-|1---1---1---1-0-3---3---3---3-0-|

Gb|2---2---2---2-0-2---2---2---2-0-|0---0---0---0-0-0---0---0---0-0-|

Db|2---2---2---2-0-3---3---3---3-0-|2---2---2---2-0-0---0---0---0-0-|

Ab|0---0---0---0-0-3---3---3---3-0-|3---3---3---3-0-2---2---2---2-0-|

Eb|----------------1---1---1---1-0-|----------------3---3---3---3-0-|

1 e & a 2 e & a 3 e & a 4 e & a 1 e & a 2 e & a 3 e & a 4 e & a

 

G#m E B F#

Eb|0---0---0---0-0-1---1---1---1-0-|0---0---0---0-0-3~--------------|

Bb|1---1---1---1-0-1---1---1---1-0-|1---1---1---1-0-3~--------------|

Gb|2---2---2---2-0-2---2---2---2-0-|0---0---0---0-0-0~--------------|

Db|2---2---2---2-0-3---3---3---3-0-|2---2---2---2-0-0~--------------|

Ab|0---0---0---0-0-3---3---3---3-0-|3---3---3---3-0-2~--------------|

Eb|----------------1---1---1---1-0-|----------------3~--------------|

1 e & a 2 e & a 3 e & a 4 e & a 1 e & a 2 e & a 3 e & a 4 e & a

F#5

Eb|(3)-----------------------------|(3)-----------------------------|

Bb|(3)-----------------------------|(3)-----------------------------|

Gb|(0)-----------------------------|(0)-----------------------------|

Db|(0)-----------------------------|(0)-------------------------5---|

Ab|(2)-----------------------------|(2)-------------------------5---|

Eb|(3)-----------------------------|(3)-------------------------3---|

1 e & a 2 e & a 3 e & a 4 e & a 1 e & a 2 e & a 3 e & a 4 e & a

 

 

 

3rd VERSE (2:13):

Deryck probably doesn\'t play this part, but I\'ll tab it out anyways.

 

D#5 F#5 D#5 F5 D#5 F5 D#5 F#5 G#5 E

Eb|--------------------------------|--------------------------------|

Bb|--------------------------------|--------------------------------|

Gb|--------------------------------|----------------------------10--|

Db|2-----------5---2-----------4---|2-----------4---2---5---7---x---|

Ab|2-----------5---2-----------4---|2-----------4---2---5---7---8---|

Eb|0---0-0-0-0-3---0---0-0-0-0-2---|0---0-0-0-0-2---0---3---5-------|

1 e & a 2 e & a 3 e & a 4 e & a 1 e & a 2 e & a 3 e & a 4 e & a

. . . . . . . . . . . .

D#5 F#5 D#5 F5 D#5 F5 D#5 F#5 G#5 E

Eb|--------------------------------|--------------------------------|

Bb|--------------------------------|--------------------------------|

Gb|--------------------------------|----------------------------10--|

Db|2-----------5---2-----------4---|2-----------4---2---5---7---x---|

Ab|2-----------5---2-----------4---|2-----------4---2---5---7---8---|

Eb|0---0-0-0-0-3---0---0-0-0-0-2---|0---0-0-0-0-2---0---3---5-------|

1 e & a 2 e & a 3 e & a 4 e & a 1 e & a 2 e & a 3 e & a 4 e & a

. . . . . . . . . . . .

 

(2:19):

D#5

Eb|--------------------------------|--------------------------------|

Bb|--------------------------------|--------------------------------|

Gb|--------------------------------|--------------------------------|

Db|2---2-2-2-2-2-2-2---------------|2---2-2-2-2-2-2-2---------------|

Ab|2---2-2-2-2-2-2-2---------------|2---2-2-2-2-2-2-2---------------|

Eb|0---0-0-0-0-0-0-0---------------|0---0-0-0-0-0-0-0---------------|

1 e & a 2 e & a 3 e & a 4 e & a 1 e & a 2 e & a 3 e & a 4 e & a

. . . . . . . . . . . . N.C.

Eb|--------------------------------|--------------------------------|

Bb|--------------------------------|--------------------------------|

Gb|--------------------------------|--------------------------------|

Db|2---2-2-2-2-2-2-2---------------|2---2-2-2-2-2-2-2-------random--|

Ab|2---2-2-2-2-2-2-2---------------|2---2-2-2-2-2-2-2-------slide---|

Eb|0---0-0-0-0-0-0-0---------------|0---0-0-0-0-0-0-0---------------|

1 e & a 2 e & a 3 e & a 4 e & a 1 e & a 2 e & a 3 e & a 4 e & a

. . . . . . . . . . . .

D#5 B D#5 A#

Eb|--------------------------------|--------------------------------|

Bb|--------------------------------|--------------------------------|

Gb|------------------------5-------|------------------------4-------|

Db|2---2-2-2-2-2-2-2-------x-------|2---2-2-2-2-2-2-2-------x-------|

Ab|2---2-2-2-2-2-2-2-------3-------|2---2-2-2-2-2-2-2-------2-------|

Eb|0---0-0-0-0-0-0-0---------------|0---0-0-0-0-0-0-0---------------|

1 e & a 2 e & a 3 e & a 4 e & a 1 e & a 2 e & a 3 e & a 4 e & a

. . . . . . . . . . . .

D#5 B F#5

Eb|--------------------------------|----------------|----------------|

Bb|--------------------------------|----------------|----------------|

Gb|------------------------5-------|----------------|----------------|

Db|2---2-2-2-2-2-2-2-------x-------|5-5-5-5-5-5-5-5-|5-5-5-5-5-5-5-5-|

Ab|2---2-2-2-2-2-2-2-------3-------|5-5-5-5-5-5-5-5-|5-5-5-5-5-5-5-5-|

Eb|0---0-0-0-0-0-0-0---------------|3-3-3-3-3-3-3-3-|3-3-3-3-3-3-3-3-|

1 e & a 2 e & a 3 e & a 4 e & a 1 & 2 & 3 & 4 & 1 & 2 & 3 & 4 &

. . . . . . . . . . . . . . . . .

 

 

 

3rd CHORUS (2:31):

G#m C#m F# D#(m)

Eb|0---0---0---0-0-1---1---1---1-0-|3---3---3---3-0-0---0---0---0-0-|\\

Bb|1---1---1---1-0-3---3---3---3-0-|3---3---3---3-0-0---0---0---0-0-| \\

Gb|2---2---2---2-0-2---2---2---2-0-|0---0---0---0-0-1---1---1---1-0-| |Play two times.

Db|2---2---2---2-0-0---0---0---0-0-|0---0---0---0-0-2---2---2---2-0-| |

Ab|0---0---0---0-0-----------------|2---2---2---2-0-2---2---2---2-0-| /

Eb|--------------------------------|3---3---3---3-0-0---0---0---0-0-|/

1 e & a 2 e & a 3 e & a 4 e & a 1 e & a 2 e & a 3 e & a 4 e & a

 

(2:42):

G#m E B F#

Eb|0---0---0---0-0-1---1---1---1-0-|0---0---0---0-0-3---3---3---3-0-|\\

Bb|1---1---1---1-0-1---1---1---1-0-|1---1---1---1-0-3---3---3---3-0-| \\

Gb|2---2---2---2-0-2---2---2---2-0-|0---0---0---0-0-0---0---0---0-0-| |Play four times.

Db|2---2---2---2-0-3---3---3---3-0-|2---2---2---2-0-0---0---0---0-0-| |

Ab|0---0---0---0-0-3---3---3---3-0-|3---3---3---3-0-2---2---2---2-0-| /

Eb|----------------1---1---1---1-0-|----------------3---3---3---3-0-|/

1 e & a 2 e & a 3 e & a 4 e & a 1 e & a 2 e & a 3 e & a 4 e & a

 

 

 

OUTRO (3:06):

Acoustic Guitar:

G#m C#m

Eb|0~------------------------------|1~------------------------------|

Bb|1~------------------------------|3~------------------------------|

Gb|2~------------------------------|2~------------------------------|

Db|2~------------------------------|0~------------------------------|

Ab|0~------------------------------|--------------------------------|

Eb|--------------------------------|--------------------------------|

 

F# D#(m)

Eb|3~------------------------------|0~------------------------------|

Bb|3~------------------------------|0~------------------------------|

Gb|0~------------------------------|1~------------------------------|

Db|0~------------------------------|2~------------------------------|

Ab|2~------------------------------|2~------------------------------|

Eb|3~------------------------------|0~------------------------------|

 

G#m C#m F# D#(m)

Eb|0---0---0---0-0-1---1---1---1-0-|3---3---3---3-0-0---0---0---0-0-|\\

Bb|1---1---1---1-0-3---3---3---3-0-|3---3---3---3-0-0---0---0---0-0-| \\

Gb|2---2---2---2-0-2---2---2---2-0-|0---0---0---0-0-1---1---1---1-0-| |Play three times.

Db|2---2---2---2-0-0---0---0---0-0-|0---0---0---0-0-2---2---2---2-0-| |

Ab|0---0---0---0-0-----------------|2---2---2---2-0-2---2---2---2-0-| /

Eb|--------------------------------|3---3---3---3-0-0---0---0---0-0-|/

1 e & a 2 e & a 3 e & a 4 e & a 1 e & a 2 e & a 3 e & a 4 e & a

 

G#m

Eb|0~------------------------------||

Bb|1~------------------------------||

Gb|2~------------------------------||

Db|2~------------------------------||

Ab|0~------------------------------||

Eb|--------------------------------||

 

 

 

 

 

================================

 

DAVE - LEAD GUITAR (D A D G B E)

 

================================

 

INTRO (0:03):

Distortion:

D# E D# E D#

E|--------------------------------|--------------------------------|

B|--------------------------------|--------------------------------|

G|8---8-8-8---8-8-8---8-8-9---8---|8---8-8-8---8-8-8---8-8-9---8---|

D|x---x-x-x---x-x-x---x-x-x---x---|x---x-x-x---x-x-x---x-x-x---x---|

A|6---6-6-6---6-6-6---6-6-7---6---|6---6-6-6---6-6-6---6-6-7---6---|

D|--------------------------------|--------------------------------|

1 e & a 2 e & a 3 e & a 4 e & a 1 e & a 2 e & a 3 e & a 4 e & a

 

D# E D# B5 A#5 B5 C#5 A#5 B5

E|--------------------------------|--------------------------------|

B|--------------------------------|--------------------------------|

G|8---8-8-8---8-8-8---8-8-9---8---|4----3----4----6----3----4------|

D|x---x-x-x---x-x-x---x-x-x---x---|4----3----4----6----3----4------|

A|6---6-6-6---6-6-6---6-6-7---6---|2----1----2----4----1----2------|

D|--------------------------------|--------------------------------|

1 e & a 2 e & a 3 e & a 4 e & a 1 e a 3 e a

*random slide

(0:09):

D#5 (m)

E|--------------------------------|--------------------------------|

B|--------------------------------|--------------------------------|

G|------------------------11------|------------------------11------|

D|1-1-1-1-1-1-1-1-1-------x-------|1-1-1-1-1-1-1-1-1-------x-------|

A|1-1-1-1-1-1-1-1-1-------9-------|1-1-1-1-1-1-1-1-1-------9-------|

D|1-1-1-1-1-1-1-1-1---------------|1-1-1-1-1-1-1-1-1---------------|

1 e & a 2 e & a 3 e & a 4 e & a 1 e & a 2 e & a 3 e & a 4 e & a

. . . . . . . . . . . . . . . . . .

B5 A#5 B5 C#5 A#5 B5

E|--------------------------------|--------------------------------|

B|--------------------------------|--------------------------------|

G|------------------------11------|4----3----4----6----3----4------|

D|1-1-1-1-1-1-1-1-1-------x-------|4----3----4----6----3----4------|

A|1-1-1-1-1-1-1-1-1-------9-------|2----1----2----4----1----2------|

D|1-1-1-1-1-1-1-1-1---------------|--------------------------------|

1 e & a 2 e & a 3 e & a 4 e & a 1 e a 3 e a

. . . . . . . . .

B5 A#5 B5 C#5 A#5 B5 D#5

E|--------------------------------|--------------------------------|

B|--------------------------------|--------------------------------|

G|4----3----4----6----3----4------|.-------.-------.-------.-------|

D|4----3----4----6----3----4------|1-------1-------1-------1-------|

A|2----1----2----4----1----2------|1-------1-------1-------1-------|

D|--------------------------------|1-------1-------1-------1-------|

1 e a 3 e a 1 e & a 2 e & a 3 e & a 4 e & a

. . . . . .

 

 

 

1st VERSE (0:18):

D# A# C# B

E|--------------------------------|--------------------------------|

B|--------------------------------|--------------------------------|

G|8-8-8-8-8-8-8-8-8-8-8-8-3-3-3-3-|6-6-6-6-6-6-6-6-4-4-4-4-4-4-4-4-|

D|x-x-x-x-x-x-x-x-x-x-x-x-x-x-x-x-|x-x-x-x-x-x-x-x-x-x-x-x-x-x-x-x-|

A|6-6-6-6-6-6-6-6-6-6-6-6-1-1-1-1-|4-4-4-4-4-4-4-4-2-2-2-2-2-2-2-2-|

D|--------------------------------|--------------------------------|

1 e & a 2 e & a 3 e & a 4 e & a 1 e & a 2 e & a 3 e & a 4 e & a

 

D#5 F#5 D#5 F5 D#5 E5 D#5 E5 D#5 E5

E|--------------------------------|--------------------------------|

B|--------------------------------|--------------------------------|

G|--------------------------------|--------------------------------|

D|1-----1-4---1---1-----1-3---1---|1-----1-2---1---1---2---1---2---|

A|1-----1-4---1---1-----1-3---1---|1-----1-2---1---1---2---1---2---|

D|1-----1-4---1---1-----1-3---1---|1-----1-2---1---1---2---1---2---|

1 e & a 2 e & a 3 e & a 4 e & a 1 e & a 2 e & a 3 e & a 4 e & a

. . . . . . . . . . . . . .

D# A# B C#

E|--------------------------------|--------------------------------|

B|--------------------------------|--------------------------------|

G|8-8-8-8-8-8-8-8-8-8-8-8-3-3-3-3-|4-4-4-4-4-4-4-4-6-6-6-6-6-6-6-6-|

D|x-x-x-x-x-x-x-x-x-x-x-x-x-x-x-x-|x-x-x-x-x-x-x-x-x-x-x-x-x-x-x-x-|

A|6-6-6-6-6-6-6-6-6-6-6-6-1-1-1-1-|2-2-2-2-2-2-2-2-4-4-4-4-4-4-4-4-|

D|--------------------------------|--------------------------------|

1 e & a 2 e & a 3 e & a 4 e & a 1 e & a 2 e & a 3 e & a 4 e & a

 

D#5 F#5 D#5 F5 D#5 E5 D#5 E5 D#5 E5

E|--------------------------------|--------------------------------|

B|--------------------------------|--------------------------------|

G|--------------------------------|--------------------------------|

D|1-----1-4---1---1-----1-3---1---|1-----1-2---1---1---2---1---2---|

A|1-----1-4---1---1-----1-3---1---|1-----1-2---1---1---2---1---2---|

D|1-----1-4---1---1-----1-3---1---|1-----1-2---1---1---2---1---2---|

1 e & a 2 e & a 3 e & a 4 e & a 1 e & a 2 e & a 3 e & a 4 e & a

. . . . . . . . . . . . . .

 

(0:30):

D# F# F C# F

E|--------------------------------|--------------------------------|

B|--------------------------------|--------------------------------|

G|8-8-8-8-8-8-11111111111110101010|10106-6-6-6-6-6-1010101010101010|

D|x-x-x-x-x-x-x-x-x-x-x-x-x-x-x-x-|x-x-x-x-x-x-x-x-x-x-x-x-x-x-x-x-|

A|6-6-6-6-6-6-9-9-9-9-9-9-8-8-8-8-|8-8-4-4-4-4-4-4-8-8-8-8-8-8-8-8-|

D|--------------------------------|--------------------------------|

1 e & a 2 e & a 3 e & a 4 e & a 1 e & a 2 e & a 3 e & a 4 e & a

 

D#5 F#5 D#5 F5 D#5 E5 D#5 E5 D#5 E5

E|--------------------------------|--------------------------------|

B|--------------------------------|--------------------------------|

G|--------------------------------|--------------------------------|

D|1-----1-4---1---1-----1-3---1---|1-----1-2---1---1---2---1---2---|

A|1-----1-4---1---1-----1-3---1---|1-----1-2---1---1---2---1---2---|

D|1-----1-4---1---1-----1-3---1---|1-----1-2---1---1---2---1---2---|

1 e & a 2 e & a 3 e & a 4 e & a 1 e & a 2 e & a 3 e & a 4 e & a

. . . . . . . . . . . . . .

D# F# C# G# F#

E|--------------------------------|--------------------------------|

B|--------------------------------|--------------------------------|

G|8-8-8-8-8-8-1111111111116-6-6-6-|13131313131313131111111111111111|

D|x-x-x-x-x-x-x-x-x-x-x-x-x-x-x-x-|x-x-x-x-x-x-x-x-x-x-x-x-x-x-x-x-|

A|6-6-6-6-6-6-9-9-9-9-9-9-4-4-4-4-|11111111111111119-9-9-9-9-9-9-9-|

D|--------------------------------|--------------------------------|

1 e & a 2 e & a 3 e & a 4 e & a 1 e & a 2 e & a 3 e & a 4 e & a

 

D#5 F#5 D#5 F5 D#5 B5 A#5 B5 C#5 A#5 B5

E|--------------------------------|--------------------------------|

B|--------------------------------|--------------------------------|

G|--------------------------------|4----3----4----6----3----4------|

D|1-----1-4---1---1-----1-3---1---|4----3----4----6----3----4------|

A|1-----1-4---1---1-----1-3---1---|2----1----2----4----1----2------|

D|1-----1-4---1---1-----1-3---1---|--------------------------------|

1 e & a 2 e & a 3 e & a 4 e & a 1 e a 3 e a

. . . . . . . .

 

 

 

1st CHORUS (0:42):

G#5

E|--------------------------------|--------------------------------|

B|--------------------------------|--------------------------------|

G|--------------------------------|--------------------------------|

D|6~------------------------------|(6)-----------------------------|

A|6~------------------------------|(6)-----------------------------|

D|6~------------------------------|(6)-----------------------------| Rest for two more measures.

 

(0:48):

G#m C#m F# D#m

E|--------------------------------|--------------------------------|\\

B|9~------------------------------|--------7~--------------7~------| \\

G|----8~------8~------8~--9~--8~--|----6~------6~--8~--------------| |Play three times.

D|--------9~------6~--------------|4~------------------8~------8~--| |

A|--------------------------------|--------------------------------| /

D|--------------------------------|--------------------------------|/

1 e & a 2 e & a 3 e & a 4 e & a 1 e & a 2 e & a 3 e & a 4 e & a

 

(1:06):

D#

E|--------------------------------|

B|--------------------------------|

G|--------------------------------|

D|--------------------random------|

A|--------------------slide-------|

D|--------------------------------|

1 e & a 2 e & a 3 e & a 4 e & a

 

B5 A#5 B5 C#5 A#5 B5 D#5

E|--------------------------------|--------------------------------|

B|--------------------------------|--------------------------------|

G|4----3----4----6----3----4------|.-------.-------.-------.-------|

D|4----3----4----6----3----4------|1-------1-------1-------1-------|

A|2----1----2----4----1----2------|1-------1-------1-------1-------|

D|--------------------------------|1-------1-------1-------1-------|

1 e a 3 e a 1 e & a 2 e & a 3 e & a 4 e & a

 

 

 

2nd VERSE (1:11):

 

Repeat 1st VERSE.

 

 

 

2nd CHORUS (1:34):

 

Repeat 1st CHORUS. Stop at \"1:06\" and play the below instead (1:59).

 

 

 

BRIDGE (1:59):

Piano part:

G#m E B F#

E|--------------------------------|--------------------------------|

B|9~--9~--9~--9~--11~-11~-11~-11~-|12~-12~-12~-12~-7~--7~--7~--7~--|

G|8~--8~--8~--8~--10~-10~-10~-10~-|11~-11~-11~-11~-6~--6~--6~--6~--| <=== Play one octave higher.

D|--------------------------------|--------------------------------|

A|--------------------------------|--------------------------------|

D|--------------------------------|--------------------------------|

1 e & a 2 e & a 3 e & a 4 e & a 1 e & a 2 e & a 3 e & a 4 e & a

 

G#m E B F#

E|--------------------------------|--------------------------------|

B|9~--9~--9~--9~--11~-11~-11~-11~-|12~-12~-12~-12~-7~--------------|

G|8~--8~--8~--8~--10~-10~-10~-10~-|11~-11~-11~-11~-6~--------------|

D|--------------------------------|--------------------------------|

A|--------------------------------|--------------------------------|

D|--------------------------------|--------------------------------|

1 e & a 2 e & a 3 e & a 4 e & a 1 e & a 2 e & a 3 e & a 4 e & a

F#5

E|--------------------------------|--------------------------------|

B|--------------------------------|--------------------------------|

G|--------------------------------|--------------------------------|

D|--------------------------------|----------------------------4---|

A|--------------------------------|----------------------------4---|

D|--------------------------------|----------------------------4---|

1 e & a 2 e & a 3 e & a 4 e & a 1 e & a 2 e & a 3 e & a 4 e & a

 

 

 

3rd VERSE (2:13):

D#5 F#5 D#5 F5 D#5 F5 D#5 F#5 G#5 E

E|--------------------------------|--------------------------------|

B|--------------------------------|--------------------------------|

G|--------------------------------|----------------------------9---|

D|1-----------4---1-----------3---|1-----------3---1---4---6---x---|

A|1-----------4---1-----------3---|1-----------3---1---4---6---7---|

D|1---1-1-1-1-4---1---1-1-1-1-3---|1---1-1-1-1-3---1---4---6-------|

1 e & a 2 e & a 3 e & a 4 e & a 1 e & a 2 e & a 3 e & a 4 e & a

. . . . . . . . . . . .

D#5 F#5 D#5 F5 D#5 F5 D#5 F#5 G#5 E

E|--------------------------------|--------------------------------|

B|--------------------------------|--------------------------------|

G|--------------------------------|----------------------------9---|

D|1-----------4---1-----------3---|1-----------3---1---4---6---x---|

A|1-----------4---1-----------3---|1-----------3---1---4---6---7---|

D|1---1-1-1-1-4---1---1-1-1-1-3---|1---1-1-1-1-3---1---4---6-------|

1 e & a 2 e & a 3 e & a 4 e & a 1 e & a 2 e & a 3 e & a 4 e & a

. . . . . . . . . . . .

 

(2:19):

D#5

E|--------------------------------|--------------------------------|

B|--------------------------------|--------------------------------|

G|--------------------------------|--------------------------------|

D|1---1-1-1-1-1-1-1---------------|1---1-1-1-1-1-1-1---------------|

A|1---1-1-1-1-1-1-1---------------|1---1-1-1-1-1-1-1---------------|

D|1---1-1-1-1-1-1-1---------------|1---1-1-1-1-1-1-1---------------|

1 e & a 2 e & a 3 e & a 4 e & a 1 e & a 2 e & a 3 e & a 4 e & a

. . . . . . . . . . . . N.C.

E|--------------------------------|--------------------random------|

B|--------------------------------|--------------------slide-by----|

G|--------------------------------|--------------------2nd-guitar--|

D|1---1-1-1-1-1-1-1---------------|1---1-1-1-1-1-1-1---------------|

A|1---1-1-1-1-1-1-1---------------|1---1-1-1-1-1-1-1-------1-------|

D|1---1-1-1-1-1-1-1---------------|1---1-1-1-1-1-1-1---------4-3-4-| <= ...?

1 e & a 2 e & a 3 e & a 4 e & a 1 e & a 2 e & a 3 e & a 4 e & a

. . . . . . . . . . . .

D#5 B D#5 A#

E|--------------------------------|--------------------------------|

B|--------------------------------|--------------------------------|

G|------------------------4-------|------------------------3-------|

D|1---1-1-1-1-1-1-1-------x-------|1---1-1-1-1-1-1-1-------x-------|

A|1---1-1-1-1-1-1-1-------2-------|1---1-1-1-1-1-1-1-------1-------|

D|1---1-1-1-1-1-1-1---------------|1---1-1-1-1-1-1-1---------------|

1 e & a 2 e & a 3 e & a 4 e & a 1 e & a 2 e & a 3 e & a 4 e & a

. . . . . . . . . . . .

D#5 B F#5

E|--------------------------------|----------------|----------------|

B|--------------------------------|----------------|----------------|

G|------------------------4-------|----------------|----------------|

D|1---1-1-1-1-1-1-1-------x-------|4-4-4-4-4-4-4-4-|4-4-4-4-4-4-4-4-|

A|1---1-1-1-1-1-1-1-------2-------|4-4-4-4-4-4-4-4-|4-4-4-4-4-4-4-4-|

D|1---1-1-1-1-1-1-1---------------|4-4-4-4-4-4-4-4-|4-4-4-4-4-4-4-4-|

1 e & a 2 e & a 3 e & a 4 e & a 1 & 2 & 3 & 4 & 1 & 2 & 3 & 4 &

. . . . . . . . . . . . . . . . .

 

 

 

3rd CHORUS (2:31):

G#m C#m F# D#m

E|--------------------------------|--------------------------------|\\

B|9~------------------------------|--------7~--------------7~------| \\

G|----8~------8~------8~--9~--8~--|----6~------6~--8~--------------| |Play two times.

D|--------9~------6~--------------|4~------------------8~------8~--| |

A|--------------------------------|--------------------------------| /

D|--------------------------------|--------------------------------|/

1 e & a 2 e & a 3 e & a 4 e & a 1 e & a 2 e & a 3 e & a 4 e & a

 

(2:42):

Not completed.

G#m E B F#

E|--------------------------------|--------------------------------|\\

B|--------------------------------|--------------------------------| \\

G|--------------------------------|--------------------------------| |Play four times.

D|--------------------------------|--------------------------------| |

A|--------------------------------|--------------------------------| /

D|--------------------------------|--------------------------------|/

1 e & a 2 e & a 3 e & a 4 e & a 1 e & a 2 e & a 3 e & a 4 e & a

 

 

 

OUTRO (3:06):

G#5

E|--------------------------------|--------------------------------|

B|--------------------------------|--------------------------------|

G|--------------------------------|--------------------------------|

D|6~------------------------------|(6)-----------------------------|

A|6~------------------------------|(6)-----------------------------|

D|6~------------------------------|(6)-----------------------------| Rest for two more measures.

 

Acoustic Sounding Guitar:

G#m C#m F# D#m

E|--------------------------------|--------------------------------|

B|9~------------------------------|--------7~----------------------|

G|----8~------8~------8~--9~--8~--|----6~------6~--9~--9~------6~--|

D|--------9~------6~--------------|4~----------------------9~------|

A|--------------------------------|--------------------------------|

D|--------------------------------|--------------------------------|

1 e & a 2 e & a 3 e & a 4 e & a 1 e & a 2 e & a 3 e & a 4 e & a

G#m C#m F# D#m

E|--------------------------------|--------------------------------|

B|--------------------------------|--------7~----------------------|

G|----8~------8~------8~--9~--8~--|----6~------6~--8~--------------|

D|9~------9~------6~--------------|4~------------------8~------8~--|

A|--------------------------------|------------------------9~------|

D|--------------------------------|--------------------------------|

1 e & a 2 e & a 3 e & a 4 e & a 1 e & a 2 e & a 3 e & a 4 e & a

G#m C#m F# D#m

E|--------------------------------|--------------------------------||

B|--------------------------------|--------7~----------------------||

G|----8~------8~------8~--9~--8~--|----6~------6~--9~--8~------6~--||

D|6~------9~------6~--------------|4~----------------------9~------||

A|--------------------------------|--------------------------------||

D|--------------------------------|-----------ritard (slow down)...||

1 e & a 2 e & a 3 e & a 4 e & a 1 e & a 2 e & a 3 e & a 4 e & a

 

3:38

 

The End

 

 

 

Lyrics:

Want it all...

Hey are we singing?

 

Take everything left from me!

All! To! Blame!

 

How can we still succeed?

Taking what we don\'t need

Telling lies, alibies

Selling all the hate that we breed

Super-size our tragedy

(You disappoint me, or dis a fy gree)...?

Born in the land of the free

(Land! Free!)

 

And we\'re all to blame

We\'ve gone to far

From pride to shame

We\'re trying so hard

We\'re dieing in vain

We\'re hopelessly blissful and blind

To all we are

We wanted all

With no sacriface!

 

Realize we spend our lives

Living in a culture of fear

Saying thanks to you...?

Say thanks to the man of the year

How did we all come to this?

(You disappoint me, or dis a fy gree)...?

We scream and we just can\'t resist

(Re!-sist!)

 

And we\'re all to blame

We\'ve gone to far

From pride to shame

We\'re trying so hard

We\'re dieing in vain

We\'re hopelessly blissful and blind

To all we are

We wanted all

Everyone wanted all

With no sacriface!

 

Tell me now

What have we done

We don\'t know

I can\'t allow

What has begun

...?

I\'m are leaving now

We have no choice

Slept with our backs against the wall

 

And now

We\'re all to blame

We\'ve gone to far

From pride to shame

We\'re hopelessly blissful and blind

When all we need

Is something true

To believe

Don\'t we all

Everyone

Everyone

We will fall

 

\'Cause we\'re all to blame

We\'ve gone to far

From pride to shame

We\'re trying so hard

We\'re dieing in vain

We want it all

Everyone

Don\'t we all

 

 

Return to my Sum 41 tabs page

The Tablature is Copyright its respective owners.

Sign Up For My Newsletter
Subscribe | Unsubscribe

Site Map | Disclaimer | Privacy Policy | Media Kit | Submissions/Corrections

Website © 2000-2014 mattsmusicpage.com. All rights reserved.

Legal & DMCA: Matt's Music Page has been providing lyrics and tabs in a legal way, paying royalties each year to a few organizations. Then, all lyrics and tabs were removed from the site. Now, there's a new owner to the site, which purchased it August 26, 2014, and he is in negotiation to obtain licensing from BMI at the moment. If you have a specific DMCA request -- please do not hesitate to contact me via the contact button on top. I will do my very best to keep this site fully legal.

Get our toolbar!