Your One-Stop Source For
Music Lyrics
Bass and Guitar Tabs
and More...
Music Lyrics Bass and Guitar Tabs

 

The Tabs Are Below

Learn To Read Tab
Chords Handbook
Corrections & Additions
Get Official Tab
Sum 41 tabs @ 911Tabs

Sum 41 - Thanks For Nothing

-------------------------------------------------------------------------------

 

A cool song, indeed. If I tabbed It wrong, tell me.

 

X = SKIP

* = LET RING OUT

x = how many times played

 

(This One Is In Drop D)

 

By: CrazyMoFo2424

 

 

e|---------------------------------------------------------------------------|

B|---------------------------------------------------------------------------|

G|-77-XX-33-XX-------55-XX-77-XX-33-XX-------5*------------------------------|

D|-77-XX-33-XX-33-XX-55-XX-77-XX-33-XX-33-XX-5-------------------------------|

A|-55-XX-11-XX-33-XX-33-XX-55-XX-11-XX-33-XX-3-------------------------------|

D|-------------33-XX-------------------33-XX---------------------------------|

 

e|---------------------------------------------------------------------------|x2

B|---------------------------------------------------------------------------|

G|---------------------------------------------------------------------------|

D|----------------------5----------------------------------------------------|

A|-5-7-8--5-7-8----7-8----8-7------------------------------------------------|

D|--------------10-----------------------------------------------------------|

 

e|---------------------------------------------------------------------------|x2

B|---------------------------------------------------------------------------|

G|-7--33-----5-XXX-----------------------------------------------------------|

D|-7--33--3--5-XXX-----------------------------------------------------------|

A|-5--11--3--3-XXX-----------------------------------------------------------|

D|--------3------------------------------------------------------------------|

 

e|---------------------------------------------------------------------------|x2

B|--x8---x8--------x8---x8---x8----------------------------------------------|

G|-7---3-----x8--5----7----3-----x8----3-5-----------------------------------|

D|-7---3---3-----5----7----3---3-----3-3-5-----------------------------------|

A|-5---1---3-----3----5----1---3-----3-1-3-----------------------------------|

D|---------3-------------------3-----3---------------------------------------|

 

e|---------------------------------------------------------------------------|x2

B|---------------------------------------------------------------------------|

G|---------------------------------------------------------------------------|

D|----------------------5----------------------------------------------------|

A|-5-7-8--5-7-8----7-8----8-7------------------------------------------------|

D|--------------10-----------------------------------------------------------|

 

e|---------------------------------------------------------------------------|x2

B|---------------------------------------------------------------------------|

G|-7--33-----5-XXX-----------------------------------------------------------|

D|-7--33--3--5-XXX-----------------------------------------------------------|

A|-5--11--3--3-XXX-----------------------------------------------------------|

D|--------3------------------------------------------------------------------|

 

First Part Repeated Twice, Second Part Repeated Twice!

e|------------------------------------------|--------------------------------|

B|--x8---x8--------x8---x8---x8-------------|--------------------------------|

G|-7---3-----x8--5----7----3-----x8----3-5--|-7------------------------------|

D|-7---3---3-----5----7----3---3-----3-3-5--|-7------------------------------|

A|-5---1---3-----3----5----1---3-----3-1-3--|-5--8---------------------------|

D|---------3-------------------3-----3------|------10------------------------|

 

Both Parts played simotaneously...(palm muted sweep picked guitar 1)

 

Guitar One Interlude!!!!

e|---------------------------------------------------------------------------|x2

B|---------------------------------------------------------------------------|

G|--x8--x8--x8--------------x8--x8--x8--XXXXXX-------------------------------|

D|-0---3---5----XX-8-XX-8--0---3---5----XXXXXX-------------------------------|

A|-0---3---5---------------0---3---5----XXXXXX-------------------------------|

D|-0---3---5---------------0---3---5-----------------------------------------|

 

Guitar Two Interlude!!!!

e|---------------------------------------------------------------------------|x2

B|---------------------------------------------------------------------------|

G|---------------------------------------------------------------------------|

D|-----------------------------8-8-------------------------------------------|

A|-7-8-8-7--10-7-7-8--7-8-8-7--7-7--7-8-8-7--10-7-7-8--7-8-8-7---------------|

D|---------------------------------------------------------------------------|

 

eh, the rest is the same damn chords...refer up from here..

 

 

Return to my Sum 41 tabs page

The Tablature is Copyright its respective owners.

Sign Up For My Newsletter
Subscribe | Unsubscribe

Site Map | Disclaimer | Privacy Policy | Media Kit | Submissions/Corrections

Website © 2000-2014 mattsmusicpage.com. All rights reserved.

Legal & DMCA: Matt's Music Page has been providing lyrics and tabs in a legal way, paying royalties each year to a few organizations. Then, all lyrics and tabs were removed from the site. Now, there's a new owner to the site, which purchased it August 26, 2014, and he is in negotiation to obtain licensing from BMI at the moment. If you have a specific DMCA request -- please do not hesitate to contact me via the contact button on top. I will do my very best to keep this site fully legal.

Get our toolbar!