Your One-Stop Source For
Music Lyrics
Bass and Guitar Tabs
and More...
Music Lyrics Bass and Guitar Tabs

 

The Sum 41 Guitar Tabs Are Below

Learn To Read Tab
Chords Handbook
Corrections & Additions
Get Official Tab
Sum 41 tabs @ 911Tabs

Pull The Curtain Sum 41

 

 

Q=120

4/4

Gtr I

S E S E S S +S S E S S S S S E S E S S +S S E S S S S

|-----------------------------|-----------------------------|

|-----------------------------|-----------------------------|

|-----------------------------|-4-4-4-4-4-4-(4)-4-4-4-4-4-4-|

|-6-6-6-6-2-2-(2)-2-2-2-2-2---|-----------------------------|

|-6-6-6-6-2-2-(2)-2-2-2-2-2---|-2-2-2-2-2-2-(2)-2-2-2-2-2-2-|

|-4-4-4-4-0-0-(0)-0-0-0-0-0---|-----------------------------|

 

 

S E S E S S +S S E S S S S S E S E S S +S S E S S S S

|-----------------------------|------------------------------|

|-----------------------------|------------------------------|

|-4-4-4-4-4-4-(4)-4-4-4-4-4-4-|------------------------------|

|-----------------------------|-6-6-6-6-2-2-(2)-2-2-2-2-2----|

|-2-2-2-2-2-2-(2)-2-2-2-2-2-2-|-6-6-6-6-2-2-(2)-2-2-2-2-2----|

|-----------------------------|-4-4-4-4-0-0-(0)-0-0-0-0-0----|

 

 

S E S E S S +S S E S S S S

|-----------------------------|

|-----------------------------|

|-4-4-4-4-4-4-(4)-4-4-4-4-4-4-|

|-----------------------------|

|-2-2-2-2-2-2-(2)-2-2-2-2-2-2-|

|-----------------------------|

 

 

S E S E S S +S S E S S S S E. S +E E +S E. E E

|-----------------------------|------------------------|

|-----------------------------|------------------------|

|-4-4-4-4-4-4-(4)-4-4-4-4-4-4-|-4--4-(4)-6-(6)---------|

|-----------------------------|----------------9--9-8--|

|-2-2-2-2-2-2-(2)-2-2-2-2-2-2-|-2--2-(2)-4-(4)---------|

|-----------------------------|----------------7--7-6--|

 

 

E S S +S S E +E E E E E. S +E E E E S S S S E S S S S S S Q

|-------------------------|-------------------|--------------------------|

|-------------------------|-------------------|--------------------------|

|-------------------------|-4--4-(4)-11--9--8-|-----------9-9-9-9-9-9-9--|

|-6-6-6-(6)-6-2-(2)-2-2-2-|-------------------|-6-6-6-6-6-9-9-9-9-9-9-9--|

|-6-6-6-(6)-6-2-(2)-2-2-2-|-2--2-(2)--9--7--6-|-6-6-6-6-6-7-7-7-7-7-7-7--|

|-4-4-4-(4)-4-0-(0)-0-0-0-|-------------------|-4-4-4-4-4-0-0-0-0-0-0-0--|

 

 

E. S +E E +S E. E E E S S +S S E +E E E E

|-----------------------|-------------------------|

|-----------------------|-------------------------|

|-4--4-(4)-6-(6)--------|-------------------------|

|----------------9--9-8-|-6-6-6-(6)-6-2-(2)-2-2-2-|

|-2--2-(2)-4-(4)--------|-6-6-6-(6)-6-2-(2)-2-2-2-|

|----------------7--7-6-|-4-4-4-(4)-4-0-(0)-0-0-0-|

 

 

S S S S E S S S S S S S S S S

|-------------------------------|

|-------------------------------|

|-------------------------------|

|-8-9-9-9-9-8-9-9-9-9-9-9-9-9-9-|

|-------------------------------|

|-6-7-7-7-7-6-7-7-7-7-7-7-7-7-7-|

 

 

3/8 3/4 4/4

Gtr IV

S S S S S S H. W W H H

|-------------|---------|-2--------|----------|-----------|

|-------------|---------|-4--------|----------|-----------|

|-6-6-6-6-6-6-|---------|-4--------|-3--------|-4----3----|

|-------------|-2-------|-4--------|-4--------|-6----4----|

|-4-4-4-4-4-4-|-2-------|-2--------|-4--------|-6----4----|

|-------------|-0-------|----------|-2--------|-4----2----|

 

 

W W W H H

|----------|-2--------|----------|-----------|

|----------|-4--------|----------|-----------|

|-1--------|-4--------|-3--------|-4----3----|

|-2--------|-4--------|-4--------|-6----4----|

|-2--------|-2--------|-4--------|-6----4----|

|-0--------|----------|-2--------|-4----2----|

 

 

W Q. E +H W Q. E +H

|----------|------11-(11)----|----------|------11-(11)----|

|----------|-----------------|----------|-----------------|

|-1--------|-----------------|----------|-----------------|

|-2--------|-----------------|----------|-4---------------|

|-2--------|-6---------------|-2--------|-2---------------|

|-0--------|-4---------------|-0--------|-----------------|

 

 

Gtr I

W E. S +E E +S E. E E

|----------|-----------------------|

|----------|-----------------------|

|----------|-4--4-(4)-6-(6)--------|

|----------|----------------9--9-8-|

|-4--------|-2--2-(2)-4-(4)--------|

|-2--------|----------------7--7-6-|

 

 

E S S +S S E +E E E E E. S +E E +E E +E E

|-------------------------|------------------------|

|-------------------------|----------7-(7)-5-(5)-4-|

|-------------------------|-4--4-(4)---------------|

|-6-6-6-(6)-6-2-(2)-2-2-2-|----------4-(4)-2-(2)-1-|

|-6-6-6-(6)-6-2-(2)-2-2-2-|-2--2-(2)---------------|

|-4-4-4-(4)-4-0-(0)-0-0-0-|------------------------|

 

 

S S S S E S S S S S S Q E. S +E E +S E. E E E S S +S S E +E E E E

|--------------------------|-----------------------|-------------------------|

|--------------------------|-----------------------|-------------------------|

|-----------9-9-9-9-9-9-9--|-4--4-(4)-6-(6)--------|-------------------------|

|-6-6-6-6-6-9-9-9-9-9-9-9--|----------------9--9-8-|-6-6-6-(6)-6-2-(2)-2-2-2-|

|-6-6-6-6-6-7-7-7-7-7-7-7--|-2--2-(2)-4-(4)--------|-6-6-6-(6)-6-2-(2)-2-2-2-|

|-4-4-4-4-4-0-0-0-0-0-0-0--|----------------7--7-6-|-4-4-4-(4)-4-0-(0)-0-0-0-|

 

 

3/8 3/4 4/4

Gtr IV

S S S S E S S S S S S S S S S S S S S S S H. W

|-------------------------------|-------------|---------|-2----|

|-------------------------------|-------------|---------|-4----|

|-------------------------------|-6-6-6-6-6-6-|---------|-4----|

|-8-9-9-9-9-8-9-9-9-9-9-9-9-9-9-|-------------|-2-------|-4----|

|-------------------------------|-4-4-4-4-4-4-|-2-------|-2----|

|-6-7-7-7-7-6-7-7-7-7-7-7-7-7-7-|-------------|-0-------|------|

 

 

W H H W W

|----------|-----------|----------|-2----|

|-2--------|-----------|----------|-4----|

|-3--------|-4----3----|-1--------|-4----|

|-4--------|-6----4----|-2--------|-4----|

|-4--------|-6----4----|-2--------|-2----|

|-2--------|-4----2----|-0--------|------|

 

 

W H H W Q. E +H

|----------|-----------|----------|------11-(11)----|

|-2--------|-----------|----------|-----------------|

|-3--------|-4----3----|-1--------|-----------------|

|-4--------|-6----4----|-2--------|-----------------|

|-4--------|-6----4----|-2--------|-6---------------|

|-2--------|-4----2----|-0--------|-4---------------|

 

 

Gtr II

W W W W

|----------|-----------------|----------|-7---------------|

|----------|-----------------|----------|-0---------------|

|----------|-----------------|----------|-----------------|

|----------|-----------------|----------|-----------------|

|----------|-----------------|----------|-----------------|

|----------|-----------------|----------|-----------------|

|

| Gtr IV Gtr I

| W Q. E +H W E E E E E E E E

|----------|------11-(11)----|----------|-----------------|

|----------|-----------------|----------|-----------------|

|----------|-----------------|----------|-----------------|

|----------|-4---------------|----------|-2-2-2-2-2-2-2-2-|

|-2--------|-2---------------|-4--------|-2-2-2-2-2-2-2-2-|

|-0--------|-----------------|-2--------|-0-0-0-0-0-0-0-0-|

 

 

Gtr I

E E E E E E E E E E E E E E E E E E E E E E E E E E E E E E E E

|------------------|-----------------|------------------|-----------------|

|------------------|-----------------|------------------|-----------------|

|------------------|-----------------|------------------|-----------------|

|--4-4-4-4-4-4-4-4-|-6-6-6-6-6-6-6-6-|--4-4-4-4-4-4-4-4-|-2-2-2-2-2-2-2-2-|

|--4-4-4-4-4-4-4-4-|-6-6-6-6-6-6-6-6-|--4-4-4-4-4-4-4-4-|-2-2-2-2-2-2-2-2-|

|--2-2-2-2-2-2-2-2-|-4-4-4-4-4-4-4-4-|--2-2-2-2-2-2-2-2-|-0-0-0-0-0-0-0-0-|

|

| Gtr II

| W W W W

|------------------|-7---------------|------------------|-7---------------|

|-11---------------|-0---------------|------------------|-0---------------|

|------------------|-----------------|-11---------------|-----------------|

|--8---------------|-----------------|------------------|-----------------|

|------------------|-----------------|--9---------------|-----------------|

|------------------|-----------------|------------------|-----------------|

 

 

E E E E E E E E E E E E E E E E E E E E E E E E E E E E E E E E

|------------------|-----------------|------------------|-----------------|

|------------------|-----------------|------------------|-----------------|

|------------------|-1-1-1-1-1-1-1-1-|------------------|-----------------|

|--4-4-4-4-4-4-4-4-|-6-6-6-6-6-6-6-6-|--4-4-4-4-4-4-4-4-|-2-2-2-2-2-2-2-2-|

|--4-4-4-4-4-4-4-4-|-6-6-6-6-6-6-6-6-|--4-4-4-4-4-4-4-4-|-2-2-2-2-2-2-2-2-|

|--2-2-2-2-2-2-2-2-|-4-4-4-4-4-4-4-4-|--2-2-2-2-2-2-2-2-|-0-0-0-0-0-0-0-0-|

|

| W W W W

|------------------|-7---------------|------------------|-----------------|

|-11---------------|-0---------------|------------------|-----------------|

|------------------|-----------------|-11---------------|-----------------|

|--8---------------|-----------------|------------------|-----------------|

|------------------|-----------------|--9---------------|-----------------|

|------------------|-----------------|------------------|-----------------|

 

 

E E E E E E E E W W

|-------------------------|----------|------|

|-------------------------|----------|------|

|-------------------------|----------|------|

|--2--2--2--2--2--2--2--2-|----------|------|

|--2--2--2--2--2--2--2--2-|----------|------|

|--0--0--0--0--0--0--0--0-|----------|------|

|

| E E E E E E E E W W

|-------------------------|----------|------|

|-------------------------|----------|------|

|-------------------------|----------|------|

|-14-14-14-14-14-14-14-14-|----------|------|

|-------------------------|----------|------|

|-12-12-12-12-12-12-12-12-|----------|------|

 

 

S S S S S S S S S S S S S S S S

|-7-7-7-7-7-7-7-7-7-7-7-7-7-7-7-7-|

|---------------------------------|

|---------------------------------|

|---------------------------------|

|---------------------------------|

|---------------------------------|

|

| Gtr III

| E E E E E E E E

|---------------------------------|

|---------------------------------|

|-4---4---4---4---3---3---3---3---|

|-4---4---4---4---4---4---4---4---|

|-2---2---2---2---1---1---1---1---|

|---------------------------------|

 

 

E E E E E E E E E E E E E E E E

|-7---7-14-------14----|-11-------11-------11-----|

|---9---------12-------|----12-------12-------12--|

|----------13-------13-|-------13-------13--------|

|----------------------|--------------------------|

|----------------------|--------------------------|

|----------------------|--------------------------|

|

| E E E E E E E E E E E E E E E E

|----------------------|--------------------------|

|----------------------|--------------------------|

|----------------------|--------------------------|

|-6-6-6--6--6--6--6--6-|--2--2--2--2--2--2--2--2--|

|-6-6-6--6--6--6--6--6-|--2--2--2--2--2--2--2--2--|

|-4-4-4--4--4--4--4--4-|--0--0--0--0--0--0--0--0--|

 

 

S S S S E E +H

|------------14-----------------------|

|-11-12-11-9----16-(16)---------------|

|-------------------------------------|

|-------------------------------------|

|-------------------------------------|

|-------------------------------------|

|

| Gtr II

| H S S S S E E

|-------------------------------14----|

|-------------------11--12-11-9----16-|

|-------------------------------------|

|-------------------------------------|

|-------------------------------------|

|-------------------------------------|

|

| Gtr III

| E E E E E E E E

|-------------------------------------|

|-------------------------------------|

|-------------------------------------|

|--4-----4----4--4---2------2----2--2-|

|--4-----4----4--4---2------2----2--2-|

|--2-----2----2--2---0------0----0--0-|

 

 

S S S S S S S S S S S S S S S S

|-------------------------------------------|

|-------------------------------------------|

|--16----16---16---16---16---16---16---16---|

|---0-----0----0----0----0----0----0----0---|

|--14----14---14---14---14---14---14---14---|

|-------------------------------------------|

|

| +W

|-------------------------------------------|

|-(16)--------------------------------------|

|-------------------------------------------|

|-------------------------------------------|

|-------------------------------------------|

|-------------------------------------------|

|

| E E E E E E E E

|-------------------------------------------|

|-------------------------------------------|

|---4-----4----4----4----4----4----4----4---|

|---4-----4----4----4----4----4----4----4---|

|---2-----2----2----2----2----2----2----2---|

|-------------------------------------------|

 

 

S S S S S S S S S S S S S S S S

|-----------------------------------------|

|-14---14---14---14---14---14---14---14---|

|-----------------------------------------|

|--0----0----0----0----0----0----0----0---|

|-16---16---16---16---16---16---16---16---|

|-----------------------------------------|

|

| Gtr III

| E E E E E E E E

|-----------------------------------------|

|-----------------------------------------|

|-----------------------------------------|

|--4----4----4----4----4----4----4----4---|

|--4----4----4----4----4----4----4----4---|

|--2----2----2----2----2----2----2----2---|

 

 

S S S S S S S S S S S S S S S S

|-----------------------------------------|

|-----------------------------------------|

|-16---16---15---15---16---16---15---15---|

|--0----0----0----0----0----0----0----0---|

|-14---14---13---13---14---14---13---13---|

|-----------------------------------------|

|

| E E E E E E E E

|-----------------------------------------|

|-----------------------------------------|

|-----------------------------------------|

|--2----2----2----2----2----2----2----2---|

|--2----2----2----2----2----2----2----2---|

|--0----0----0----0----0----0----0----0---|

 

 

E E E E E E Q E E E E E E E E E E E E E E E E E E E E E E E E

|-------14-------14------|-----------------|-----------------|-----------------|

|----12-------12----12---|-----------------|-----------------|-----------------|

|-13-------13------------|-----------------|-----------------|-----------------|

|------------------------|-4-4-4-4-4-4-4-4-|-----------------|-----------------|

|------------------------|-2-2-2-2-1-1-1-1-|-6-6-6-6-4-4-4-4-|-2-2-2-2-2-2-2-2-|

|------------------------|-----------------|-4-4-4-4-2-2-2-2-|-0-0-0-0-0-0-0-0-|

|

| E E E E E E E E W W W

|------------------------|-----------------|-----------------|-----------------|

|------------------------|-----------------|-----------------|-----------------|

|------------------------|-----------------|-----------------|-----------------|

|--2--2--2--2--2--2--2-2-|-----------------|-----------------|-----------------|

|--2--2--2--2--2--2--2-2-|-----------------|-----------------|-----------------|

|--0--0--0--0--0--0--0-0-|-----------------|-----------------|-----------------|

 

 

E E E E E E E E S S S S S S S S S S S S S S S S

|-----------------|---------------------------------|

|-----------------|---------------------------------|

|-----------------|-4-4-4-4-4-4-4-4-3-3-3-3-3-3-3-3-|

|-----------------|-4-4-4-4-4-4-4-4-4-4-4-4-4-4-4-4-|

|-2-2-2-2-2-2-2-2-|-2-2-2-2-2-2-2-2-1-1-1-1-1-1-1-1-|

|-0-0-0-0-0-0-0-0-|---------------------------------|

 

 

S S S S S S S S S S S S S S S S S S S S S S S S S S S S S S S S

|---------------------------------|---------------------------------|

|---------------------------------|---------------------------------|

|---------------------------------|---------------------------------|

|-6-6-6-6-6-6-6-6-4-4-4-4-4-4-4-4-|-2-2-2-2-2-2-2-2-2-2-2-2-2-2-2-2-|

|-6-6-6-6-6-6-6-6-4-4-4-4-4-4-4-4-|-2-2-2-2-2-2-2-2-2-2-2-2-2-2-2-2-|

|-4-4-4-4-4-4-4-4-2-2-2-2-2-2-2-2-|-0-0-0-0-0-0-0-0-0-0-0-0-0-0-0-0-|

 

 

S S S S S S S S S S S S S S S S S S S S S S S S S S S S S S S S

|---------------------------------|---------------------------------|

|---------------------------------|---------------------------------|

|---------------------------------|-4-4-4-4-4-4-4-4-3-3-3-3-3-3-3-3-|

|-2-2-2-2-2-2-2-2-2-2-2-2-2-2-2-2-|-4-4-4-4-4-4-4-4-4-4-4-4-4-4-4-4-|

|-2-2-2-2-2-2-2-2-2-2-2-2-2-2-2-2-|-2-2-2-2-2-2-2-2-1-1-1-1-1-1-1-1-|

|-0-0-0-0-0-0-0-0-0-0-0-0-0-0-0-0-|---------------------------------|

 

 

S S S S S S S S S S S S S S S S S S S S S S S S S S S S S S S S

|---------------------------------|---------------------------------|

|---------------------------------|---------------------------------|

|---------------------------------|---------------------------------|

|-6-6-6-6-6-6-6-6-4-4-4-4-4-4-4-4-|-2-2-2-2-2-2-2-2-2-2-2-2-2-2-2-2-|

|-6-6-6-6-6-6-6-6-4-4-4-4-4-4-4-4-|-2-2-2-2-2-2-2-2-2-2-2-2-2-2-2-2-|

|-4-4-4-4-4-4-4-4-2-2-2-2-2-2-2-2-|-0-0-0-0-0-0-0-0-0-0-0-0-0-0-0-0-|

 

 

S S S S S S S S S S S S S S S S

|---------------------------------|

|---------------------------------|

|---------------------------------|

|-2-2-2-2-2-2-2-2-2-2-2-2-2-2-2-2-|

|-2-2-2-2-2-2-2-2-2-2-2-2-2-2-2-2-|

|-0-0-0-0-0-0-0-0-0-0-0-0-0-0-0-0-|

 

 

E S S +S S E +E E E E E S S +S S E +E E E E

|-------------------------|--------------------------|

|-------------------------|-5-5-5-(5)-5-5-(5)-5-5-5--|

|-------------------------|-4-4-4-(4)-4-4-(4)-4-4-4--|

|-6-6-6-(6)-6-6-(6)-6-6-6-|-2-2-2-(2)-2-2-(2)-2-2-2--|

|-6-6-6-(6)-6-6-(6)-6-6-6-|--------------------------|

|-4-4-4-(4)-4-4-(4)-4-4-4-|--------------------------|

 

 

E S S +S S E +E E E E E S S +S S E +E E E E E S S +S S E +E E E E

|-------------------------|-------------------------|-------------------------|

|-------------------------|-------------------------|-------------------------|

|-4-4-4-(4)-4-4-(4)-4-4-4-|-------------------------|-------------------------|

|-4-4-4-(4)-4-4-(4)-4-4-4-|-4-4-4-(4)-4-4-(4)-4-4-4-|-6-6-6-(6)-6-6-(6)-6-6-6-|

|-2-2-2-(2)-2-2-(2)-2-2-2-|-4-4-4-(4)-4-4-(4)-4-4-4-|-6-6-6-(6)-6-6-(6)-6-6-6-|

|-------------------------|-2-2-2-(2)-2-2-(2)-2-2-2-|-4-4-4-(4)-4-4-(4)-4-4-4-|

 

 

E S S +S S E +E E E E E S S +S S E +E E E E E S S +S S E +E E E E

|-------------------------|-------------------------|-------------------------|

|-5-5-5-(5)-5-5-(5)-5-5-5-|-------------------------|-------------------------|

|-4-4-4-(4)-4-4-(4)-4-4-4-|-4-4-4-(4)-4-4-(4)-4-4-4-|-------------------------|

|-2-2-2-(2)-2-2-(2)-2-2-2-|-4-4-4-(4)-4-4-(4)-4-4-4-|-4-4-4-(4)-4-4-(4)-4-4-4-|

|-------------------------|-2-2-2-(2)-2-2-(2)-2-2-2-|-4-4-4-(4)-4-4-(4)-4-4-4-|

|-------------------------|-------------------------|-2-2-2-(2)-2-2-(2)-2-2-2-|

 

 

E S S +S S E +E E E E E S S +S S E +E E E E E S S +S S E +E E E E

|-------------------------|-------------------------|-------------------------|

|-------------------------|-5-5-5-(5)-5-5-(5)-5-5-5-|-------------------------|

|-------------------------|-4-4-4-(4)-4-4-(4)-4-4-4-|-4-4-4-(4)-4-4-(4)-4-4-4-|

|-6-6-6-(6)-6-6-(6)-6-6-6-|-2-2-2-(2)-2-2-(2)-2-2-2-|-4-4-4-(4)-4-4-(4)-4-4-4-|

|-6-6-6-(6)-6-6-(6)-6-6-6-|-------------------------|-2-2-2-(2)-2-2-(2)-2-2-2-|

|-4-4-4-(4)-4-4-(4)-4-4-4-|-------------------------|-------------------------|

 

 

E S S +S S E +E E E E E S S +S S E +E E E E E S S +S S E +E E E E

|-------------------------|-------------------------|-------------------------|

|-------------------------|-------------------------|-5-5-5-(5)-5-5-(5)-5-5-5-|

|-------------------------|-------------------------|-4-4-4-(4)-4-4-(4)-4-4-4-|

|-4-4-4-(4)-4-4-(4)-4-4-4-|-6-6-6-(6)-6-6-(6)-6-6-6-|-2-2-2-(2)-2-2-(2)-2-2-2-|

|-4-4-4-(4)-4-4-(4)-4-4-4-|-6-6-6-(6)-6-6-(6)-6-6-6-|-------------------------|

|-2-2-2-(2)-2-2-(2)-2-2-2-|-4-4-4-(4)-4-4-(4)-4-4-4-|-------------------------|

 

 

E S S +S S E +E E E E E S S +S S E +E E E E W +W

|-------------------------|-------------------------|----------|--------|

|-------------------------|-------------------------|----------|--------|

|-4-4-4-(4)-4-4-(4)-4-4-4-|-------------------------|-4--------|-(4)----|

|-4-4-4-(4)-4-4-(4)-4-4-4-|-4-4-4-(4)-4-4-(4)-4-4-4-|-4--------|-(4)----|

|-2-2-2-(2)-2-2-(2)-2-2-2-|-4-4-4-(4)-4-4-(4)-4-4-4-|-2--------|-(2)----|

|-------------------------|-2-2-2-(2)-2-2-(2)-2-2-2-|----------|--------|

|

| Gtr II

| W W W +W

|-------------------------|-------------------------|----------|--------|

|-------------------------|-------------------------|----------|--------|

|-------------------------|-------------------------|----------|--------|

|-------------------------|-------------------------|----------|--------|

|-------------------------|-------------------------|----------|--------|

|-------------------------|-------------------------|-2--------|-(2)----|

|

| Gtr IV

| W W W +W

|-------------------------|-------------------------|----------|--------|

|-------------------------|-------------------------|----------|--------|

|-------------------------|-------------------------|----------|--------|

|-------------------------|-------------------------|----------|--------|

|-------------------------|-------------------------|-2--------|-(2)----|

|-------------------------|-------------------------|----------|--------|

 

 

+W +W +W W

|------------|------------|------------|------|

|------------|------------|------------|------|

|-(4)--------|-(4)--------|-(4)--------|------|

|-(4)--------|-(4)--------|-(4)--------|------|

|-(2)--------|-(2)--------|-(2)--------|------|

|------------|------------|------------|------|

|

| +W +W +W W

|------------|------------|------------|------|

|------------|------------|------------|------|

|------------|------------|------------|------|

|------------|------------|------------|------|

|------------|------------|------------|------|

|-(2)--------|-(2)--------|-(2)--------|------|

|

| W +W +W W

|------------|------------|------------|------|

|------------|------------|------------|------|

|------------|------------|------------|------|

|------------|------------|------------|------|

|--1---------|-(1)--------|-(1)--------|------|

|------------|------------|------------|-2----|

 

 

Gtr IV

+W +W W +H. Q

|------------|------------|----------|-------------|

|------------|------------|-0--------|-(0)---------|

|------------|------------|-4--------|-(4)---------|

|------------|------------|----------|-------------|

|------------|------------|-2--------|-(2)---------|

|-(2)--------|-(2)--------|-0--------|-(0)---------|

 

 

Q=70

H H H Q Q H Q. E Q. E Q Q

|-4----9----|-2----7--6--|-4----12-------|----------7--6--|

|------9----|------7--7--|------14-------|-14-------7--7--|

|-----------|------------|------------13-|-15-------------|

|-----------|------------|---------------|-------16-------|

|-----------|------------|---------------|----------------|

|-4----9----|-2----7--6--|-4-------------|----------7--6--|

 

 

6/4

Q. E Q E E Q E E Q Q Q E E Q E E Q E E Q Q Q Q

|----------9--12----|-2---9---7--6--|-4--11---9--12----|-2---9---7--6--4--2---|

|-16-------9--14----|----11-7-7--7--|----12-9-9--14----|----11-7-7--7---------|

|-16----------13-13-|----11---------|----13------13-13-|----11----------------|

|-------18----------|---------------|------------------|----------------------|

|-------------------|---------------|------------------|----------------------|

|----------9--------|-2-------7--6--|-4-------9--------|-2-------7--6--4--2---|

 

 

4/4

W

|------*|

|-5----*|

|------*|

|------*|

|-2----*|

|-0----*|

 

Return to my Sum 41 Guitar Tabs page

The Sum 41 Guitar Tablature is Copyright its respective owners.

Sign Up For My Newsletter
Subscribe | Unsubscribe

Site Map | Disclaimer | Privacy Policy | Media Kit | Submissions/Corrections

Website © 2000-2014 mattsmusicpage.com. All rights reserved.

Legal & DMCA: Matt's Music Page has been providing lyrics and tabs in a legal way, paying royalties each year to a few organizations. Then, all lyrics and tabs were removed from the site. Now, there's a new owner to the site, which purchased it August 26, 2014, and he is in negotiation to obtain licensing from BMI at the moment. If you have a specific DMCA request -- please do not hesitate to contact me via the contact button on top. I will do my very best to keep this site fully legal.

Get our toolbar!

 

Hard Rock Pin Las Vegas 4th of july red white and blue guitar
$5.0
Hard Rock Pin Las Vegas 4th of july red white and blue guitar picture


Hard Rock Pin Hollywood Fl Bell Girl with dice luggage and guitar
$5.0
Hard Rock Pin Hollywood Fl Bell Girl with dice luggage and guitar picture


Hard Rock Pin Las Vegas King of Clubs Guitar rare only 3 lines of info on back
$5.0
Hard Rock Pin Las Vegas King of Clubs Guitar rare only 3 lines of info on back picture


Hard Rock Pin Edmonton guitar pin
$5.0
Hard Rock Pin Edmonton guitar pin picture


Lladro Guitar Boy #4614 - Beautiful Piece of Lladro
$109.0
Lladro Guitar Boy #4614 - Beautiful Piece of Lladro picture