Your One-Stop Source For
Music Lyrics
Bass and Guitar Tabs
and More...
Music Lyrics Bass and Guitar Tabs

 

The Tabs Are Below

Learn To Read Tab
Chords Handbook
Corrections & Additions
Get Official Tab
Sum 41 tabs @ 911Tabs

Song:Open Your Eyes

Artist:Sum 41

Album: Chuck

 

Tuning:Eb Bb Eb Ab C F(up 1/2 step and drop d)

 

 

Intro w/ wah

F|---------------------------------|

C|---------------------------------|

Ab|-9-9-9-9-9-9-9-9-9-9-9-9-9-9-9-9-|

Eb|-x-x-x-x-x-x-x-x-x-x-x-x-x-x-x-x-|

Bb|-7-7-7-7-7-7-7-7-7-7-7-7-7-7-7-7-|

Eb|---------------------------------|

 

Pre-Verse x2

F|-----------------------------------|

C|-----------------------------------|

Ab|-------5-5-------------------------|

Eb|-2-2---5-5---5-5---0-0-0-0-0-0-0-0-|

Bb|-2-2---3-3---5-5---0-0-0-0-0-0-0-0-|

Eb|-2-2---------5-5---0-0-0-0-0-0-0-0-|

 

Verse(staccato notes)

F|-----------------|-----------------|-----------------|-----------------|

C|-----------------|-----------------|-----------------|-----------------|

Ab|-9-9-9-9-9-9-9-9-|-5-5-5-5-5-5-5-5-|-----------------|-----------------|

Eb|-9-9-9-9-9-9-9-9-|-5-5-5-5-5-5-5-5-|-5-5-5-5-5-5-5-5-|-0-0-0-0-0-0-0-0-|

Bb|-7-7-7-7-7-7-7-7-|-3-3-3-3-3-3-3-3-|-5-5-5-5-5-5-5-5-|-0-0-0-0-0-0-0-0-|

Eb|-----------------|-----------------|-5-5-5-5-5-5-5-5-|-0-0-0-0-0-0-0-0-|

Chorus

F|-----------------|-----------------|-----------------|-----------------|

C|-----------------|-----------------|-----------------|-----------------|

Ab|-9-9-9-9-9-9-9-9-|-5-5-5-5-5-5-5-5-|-----------------|-----------------|

Eb|-9-9-9-9-9-9-9-9-|-5-5-5-5-5-5-5-5-|-5-5-5-5-5-5-5-5-|-0-0-0-0-0-0-0-0-|

Bb|-7-7-7-7-7-7-7-7-|-3-3-3-3-3-3-3-3-|-5-5-5-5-5-5-5-5-|-0-0-0-0-0-0-0-0-|

Eb|-----------------|-----------------|-5-5-5-5-5-5-5-5-|-0-0-0-0-0-0-0-0-|

Bridge x4

F|-------------|

C|-------------|

Ab|-9-9-----5-5-|

Eb|-9-9-----5-5-|

Bb|-7-7-----3-3-|

Eb|-------------|

Solo x2

F|--------------------------------------------------------------------------------|

C|-5--7---8--10--12--13--12--13---15:15:15:15:15:15:15:15:15:15:15:15:15:15:15:15-|

Ab|-7b-9b-10b-12b-14b-15b-14b-15b--------------------------------------------------|

Eb|--------------------------------------------------------------------------------|

Bb|--------------------------------------------------------------------------------|

Eb|--------------------------------------------------------------------------------|

 

the colon means to use the toggle switch technique(the treble volume knob is turned

all the way up and the rhythm knob is turner all the way down and this allows you to

use the toggle switch as a kill switch) and flicker it back and forth. if you dont have

a toggle switch just tremelo the note

 

 

this is the first tab for this song i believe and im kinda new to tabbin so sorry in

advance if i screwed up

 

 

Return to my Sum 41 tabs page

The Tablature is Copyright its respective owners.

Sign Up For My Newsletter
Subscribe | Unsubscribe

Site Map | Disclaimer | Privacy Policy | Media Kit | Submissions/Corrections

Website © 2000-2014 mattsmusicpage.com. All rights reserved.

Legal & DMCA: Matt's Music Page has been providing lyrics and tabs in a legal way, paying royalties each year to a few organizations. Then, all lyrics and tabs were removed from the site. Now, there's a new owner to the site, which purchased it August 26, 2014, and he is in negotiation to obtain licensing from BMI at the moment. If you have a specific DMCA request -- please do not hesitate to contact me via the contact button on top. I will do my very best to keep this site fully legal.

Get our toolbar!

 

VINTAGE SORRENTO MUSIC JEWELRY BOX
$45.0
VINTAGE SORRENTO MUSIC JEWELRY BOX picture


VINTAGE LACQUERED MUSIC BOX JAPAN
$25.99
VINTAGE LACQUERED MUSIC BOX JAPAN picture


Vintage Kehlsteinhaus Bavaria Germany Colorscope Cow Bell View Master Music Box
$8.99
Vintage Kehlsteinhaus Bavaria Germany Colorscope Cow Bell View Master Music Box picture


VINTAGE SCHMIDT Signed Collectible Musical Turning Clown
$9.99
VINTAGE  SCHMIDT Signed Collectible Musical Turning Clown picture


Vintage - Linen - Postcard - Stage - Radio City Music Hall - New York City
$3.75
Vintage - Linen - Postcard - Stage - Radio City Music Hall - New York City   picture