Your One-Stop Source For
Music Lyrics
Bass and Guitar Tabs
and More...
Music Lyrics Bass and Guitar Tabs

 

The Tabs Are Below

Learn To Read Tab
Chords Handbook
Corrections & Additions
Get Official Tab
Sum 41 tabs @ 911Tabs

Sum 41 - My Direction

-------------------------------------------------------------------------------

^=Bend X=Skip Vote on it, tell me if it sucks.

(this ones in Drop D)

 

*Note same chords used throughout song...

 

By:The Crazy Guitarist

 

Introduction!

e|---------------------------------------------------------------------------|

B|-XXXX----------------------------------------------------------------------|

G|-XXXX-------------33-X-----------------------------------------------------|

D|-XXXX--3-XX-1-XX--33-X--33-XX----------------------------------------------|

A|-XXXX--3-XX-1-XX--11-X--33-XX----------------------------------------------|

E|-------3-XX-1-XX--------33-XX----------------------------------------------|

 

e|---------------------------------------------------------------------------|x3

B|---------------------------------------------------------------------------|

G|------------33-X-----------------------------------------------------------|

D|-3-XX-1-XX--33-X--33-XX----------------------------------------------------|

A|-3-XX-1-XX--11-X--33-XX----------------------------------------------------|

E|-3-XX-1-XX--------33-XX----------------------------------------------------|

 

e|-------------|----------x2----|--------------------------------------------|

B|------x4-----|----------------|--------------------------------------------|

G|-------------|-10-10-10-8-7-8-|-----------------------x2-------------------|

D|-------------|-10-10-10-8-7-8-|--------------------------------------------|

A|---------11--|--8--8--8-6-5-6-|---------------1111-------------------------|

E|-3333-11-----|----------------|-33333333-1111------------------------------|

 

e|---------------------------------------------------------------------------|x4

B|---------------------------------------------------------------------------|

G|------------33-X-----------------------------------------------------------|

D|-3-XX-1-XX--33-X--33-XX----------------------------------------------------|

A|-3-XX-1-XX--11-X--33-XX----------------------------------------------------|

E|-3-XX-1-XX--------33-XX----------------------------------------------------|

 

e|---------------------------------------------------------------------------|x2

B|---------------------------------------------------------------------------|

G|---------33----------3-----------------------------------------------------|

D|-33--11--33--333--1--3-----------------------------------------------------|

A|-33--11--11--333--1--1-----------------------------------------------------|

E|-33--11------333--1--------------------------------------------------------|

 

Return to my Sum 41 tabs page

The Tablature is Copyright its respective owners.

Sign Up For My Newsletter
Subscribe | Unsubscribe

Site Map | Disclaimer | Privacy Policy | Media Kit | Submissions/Corrections

Website © 2000-2014 mattsmusicpage.com. All rights reserved.

Legal & DMCA: Matt's Music Page has been providing lyrics and tabs in a legal way, paying royalties each year to a few organizations. Then, all lyrics and tabs were removed from the site. Now, there's a new owner to the site, which purchased it August 26, 2014, and he is in negotiation to obtain licensing from BMI at the moment. If you have a specific DMCA request -- please do not hesitate to contact me via the contact button on top. I will do my very best to keep this site fully legal.

Get our toolbar!