Your One-Stop Source For
Music Lyrics
Bass and Guitar Tabs
and More...
Music Lyrics Bass and Guitar Tabs

 

The Sum 41 Guitar Tabs Are Below

Learn To Read Tab
Chords Handbook
Corrections & Additions
Get Official Tab
Sum 41 tabs @ 911Tabs

Song: King Of Contradiction

Album: Underclass Hero

Band: Sum 41

Tunning: Standard

 

A good ol' spit in your face Sum 41 song

 

The intro is just open strings, effects and a pick slide,

so im just going to start right at the verse

 

Guitar Legend:

. = palm mute

* = mute string(s)

 

Starting at the verse

 

Verse:

e|-----------------------------------|

b|-----------------------------------|

g|----------8-8-888-7-7-777-7-7-777--|

d|--5-5-555-8-8-888-7-7-777-7-7-777--|

a|--5-5-555-6-6-666-5-5-555-5-5-555--|

e|--3-3-333--------------------------| (x2)

 

then

e|-----------------------------------|

b|-----------------------------------|

g|----------8-8-888------------------|

d|--5-5-555-8-8-888-8-8-888-7-7-777--|

a|--5-5-555-6-6-666-8-8-888-8-8-888--|

e|--3-3-333---------6-6-666-5-5-555--|

 

then back to

e|-----------------------------------|

b|-----------------------------------|

g|----------8-8-888-7-7-777-7-7-777--|

d|--5-5-555-8-8-888-7-7-777-7-7-777--|

a|--5-5-555-6-6-666-5-5-555-5-5-555--|

e|--3-3-333--------------------------|

 

Chours:

e|-------------------------------------------|

b|------------------10-10-10-10-11-11-11-11--|

g|--8-8-8-8---------10-10-10-10-12-12-12-12--|

d|--8-8-8-8-8-8-8-8-10-10-10-10-12-12-12-12--|

a|--6-6-6-6-8-8-8-8-8--8--8--8--10-10-10-10--|

e|----------6-6-6-6--------------------------| (x3)

 

on the last time do this instead

e|---------------------------------------------------|

b|---------------------------------------------------|

g|--8-8-8-8---------7-7-777-7-7-777-7-7-777-7-7-777--|

d|--8-8-8-8-8-8-8-8-7-7-777-7-7-777-7-7-777-7-7-777--|

a|--6-6-6-6-8-8-8-8-5-5-555-5-5-555-5-5-555-5-5-555--|

e|----------6-6-6-6----------------------------------|

 

Stop on

e|------|

b|------|

g|--7-*-|

d|--7-*-|

a|--5-*-|

e|------|

for the drum solo

 

(Drum Solo)

 

Repeat Verse

 

Repeat Chours (expect on the last time play this)

e|-----------------------------|

b|-----------------------------|

g|-----------------------------|

d|--9--9--9-9-9--9--9--9-9-9---|

a|--10-10-101010-10-10-101010--|

e|--7--7--7-7-7--7--7--7-7-7---|

instead of the 775 chord

 

Bridge:

e|---------------------------------------------------------

b|---------------------------------------------------------

g|--5-5-5555-5-5-5555-------------------5-5-5555-5-5-5555--

d|--5-5-5555-5-5-5555-5-5-5555-5-5-5555-5-5-5555-5-5-5555--

a|--3-3-3333-3-3-3333-5-5-5555-5-5-5555-3-3-3333-3-3-3333--

e|--------------------3-3-3333-3-3-3333--------------------

 

e|---------------------------------------------------------|

b|---------------------------------------------------------|

g|--5-5-5555-5-5-5555--------------------------------------|

d|--5-5-5555-5-5-5555-9-9-9999-9-9-9999-8-8-8888-8-8-8888--|

a|--3-3-3333-3-3-3333-9-9-9999-9-9-9999-8-8-8888-8-8-8888--|

e|--------------------7-7-7777-7-7-7777-6-6-6666-6-6-6666--|

 

Interlude:

Grt 1.

e|--------------------------|

b|--------------------------|

g|---------------------5-8--|

d|---------------------5-8--|

a|---------------------3-6--|

e|--3333-33333-33333-3------| Repeat Until Ending

 

Grt 2.

e|--------------------------|

b|--------------------------|

g|---------------------5-8--|

d|---------------------5-8--|

a|--5555-55555-55555-5-3-6--|

e|--3333-33333-33333-3------| (x2)

.... ..... ..... .

then

e|--------------------------|

b|--------------------------|

g|---------------------5-8--|

d|---------------------5-8--|

a|--555555555555555555-3-6--|

e|--333333333333333333------| (x2)

..................

 

Outro:

Both Guitars End On

e|----------------|

b|----------------|

g|----------------|

d|--5-*-5-*-5--*--|

a|--5-*-5-*-5--*--|

e|--3-*-3-*-3--*--|

 

There you go

Have any questions? Email them to me at grimscottonbox@yahoo.com

make sure to subject them "King Of Contradiction Tab"

 

thanks

Return to my Sum 41 Guitar Tabs page

The Sum 41 Guitar Tablature is Copyright its respective owners.

Sign Up For My Newsletter
Subscribe | Unsubscribe

Site Map | Disclaimer | Privacy Policy | Media Kit | Submissions/Corrections

Website © 2000-2014 mattsmusicpage.com. All rights reserved.

Legal & DMCA: Matt's Music Page has been providing lyrics and tabs in a legal way, paying royalties each year to a few organizations. Then, all lyrics and tabs were removed from the site. Now, there's a new owner to the site, which purchased it August 26, 2014, and he is in negotiation to obtain licensing from BMI at the moment. If you have a specific DMCA request -- please do not hesitate to contact me via the contact button on top. I will do my very best to keep this site fully legal.

Get our toolbar!