Your One-Stop Source For
Music Lyrics
Bass and Guitar Tabs
and More...
Music Lyrics Bass and Guitar Tabs

 

The Tabs Are Below

Learn To Read Tab
Chords Handbook
Corrections & Additions
Get Official Tab
Sum 41 tabs @ 911Tabs

Hyper-Insomnia-Para-Condroid - Sum 41

-------------------------------------------------------------------------------

 

Tabbed by: Jamie Hawker

Email: jamiehawker@hotmail.com

 

Tuning: Drop D (D-A-D-G-B-e)

 

Intro

 

(Part 1)

e|----------------------------------------------------------------------|

B|----------------------------------------------------------------------|

G|----------------------------------------------------------------------|

D|-----------0-----------0-----------0-----------0----------------------|

A|-5-5-5-5-5---5-5-5-5-5---5-5-5-5-5---5-5-5-5-5------------------------|

D|----------------------------------------------------------------------| X4

x x x x x x x x x x x x x x x x

 

(Part 2) (Enters on 3rd play of Part 1)

e|----------------------------------------------------------------------|

B|----------------------------------------------------------------------|

G|----------------------------------------------------------------------|

D|-7-5-0-0-xxxx-5-5-xxxx-8-8-xxxx-7-7-10-10-----------------------------|

A|-7-5-0-0-xxxx-5-5-xxxx-8-8-xxxx-7-7-10-10-----------------------------|

D|-7-5-0-0-xxxx-5-5-xxxx-8-8-xxxx-7-7-10-10-----------------------------|

 

e|----------------------------------------------------------------------|

B|----------------------------------------------------------------------|

G|----------------------------------------------------------------------|

D|-0-0-xxxx-5-5-xxxx-8-8-xxxx-7-7-10-10-0-------------------------------|

A|-0-0-xxxx-5-5-xxxx-8-8-xxxx-7-7-10-10-0-------------------------------|

D|-0-0-xxxx-5-5-xxxx-8-8-xxxx-7-7-10-10-0 ------------------------------|

 

Verse

 

(Bass)

G|----------------------------------------------------------------------|

D|----------------------------------------------------------------------|

A|----------------------------------------------------------------------|

D|-0--5--8--7-10--0--5--8--7-3------------------------------------------|

 

(Guitar)

e|----------------------------------------------------------------------|

B|----------------------------------------------------------------------|

G|----------------------------------------------------------------------|

D|----------------------------------------------------------------------|

A|----------------------------------------------------------------------|

D|-00000000-55555555-88888888-7777-10101010-----------------------------|

 

e|----------------------------------------------------------------------|

B|----------------------------------------------------------------------|

G|----------------------------------------------------------------------|

D|---------------------------5-5-xxxx-0-0-0-----------------------------|

A|---------------------------5-5-xxxx-0-0-0-----------------------------|

D|-00000000-1010101010101010-5-5-xxxx-0-0-0-----------------------------|

x x x

Chorus

 

e|----------------------------------------------------------------------|

B|----------------------------------------------------------------------|

G|----------------------------------------------------------------------|

D|-0-10-8-3--0-10-8-5--0-10-8-3--0-10-8-5-7-0---------------------------|

A|-0-10-8-3--0-10-8-5--0-10-8-3--0-10-8-5-7-0---------------------------|

D|-0-10-8-3--0-10-8-5--0-10-8-3--0-10-8-5-7-0---------------------------|

 

Verse

 

(Bass)

G|----------------------------------------------------------------------|

D|----------------------------------------------------------------------|

A|----------------------------------------------------------------------|

D|-0--5--8--7-10--0--5--8--8p7------------------------------------------|

 

(Guitar)

e|----------------------------------------------------------------------|

B|----------------------------------------------------------------------|

G|----------------------------------------------------------------------|

D|----------------------------------------------------------------------|

A|----------------------------------------------------------------------|

D|-00000000-55555555-88888888-7777-10101010-----------------------------|

 

e|----------------------------------------------------------------------|

B|----------------------------------------------------------------------|

G|----------------------------------------------------------------------|

D|---------------------------5-5-xxxx-5-5-xxxx-0-0-0--------------------|

A|---------------------------5-5-xxxx-5-5-xxxx-0-0-0--------------------|

D|-00000000-1010101010101010-5-5-xxxx-5-5-xxxx-0-0-0--------------------|

x x x

Chorus

 

e|----------------------------------------------------------------------|

B|----------------------------------------------------------------------|

G|----------------------------------------------------------------------|

D|-0-10-8-3--0-10-8-5--0-10-8-3--0-10-8-5-7-----------------------------|

A|-0-10-8-3--0-10-8-5--0-10-8-3--0-10-8-5-7-----------------------------|

D|-0-10-8-3--0-10-8-5--0-10-8-3--0-10-8-5-7-----------------------------|

 

Break

 

e|----------------------------------------------------------------------|

B|----------------------------------------------------------------------|

G|----------------------------------------------------------------------|

D|-55555555-88888888-77777777-1010101010101010--------------------------|

A|-55555555-88888888-77777777-1010101010101010--------------------------|

D|-55555555-88888888-77777777-1010101010101010--------------------------|

 

e|----------------------------------------------------------------------|

B|----------------------------------------------------------------------|

G|----------------------------------------------------------------------|

D|-55555555-88888888-77777777-1010101010101010-1212121212121212---------|

A|-55555555-88888888-77777777-1010101010101010-1212121212121212---------|

D|-55555555-88888888-77777777-1010101010101010-1212121212121212---------|

 

(Riff 1)

e|----------------------------------------------------------------------|

B|----------------------------------------------------------------------|

G|-14-14-14-15-15-15-14--14-14-14-15-15-15-17---------------------------|

D|-x--x--x--x--x--x--x---x--x--x--x--x--x--x----------------------------|

A|-12-12-12-13-13-13-12--12-12-12-13-13-13-15---------------------------|

D|-0--0--0--0--0--0--0---0--0--0--0--0--0--0----------------------------| X4

 

or

 

(Riff 2)

e|----------------------------------------------------------------------|

B|----------------------------------------------------------------------|

G|----------------------------------------------------------------------|

D|-12-12-12-12-12-12-12--12-12-12-12-12-12-12---------------------------|

A|-12-12-12-13-13-13-12--12-12-12-13-13-13-15---------------------------|

D|-12-12-12-12-12-12-12--12-12-12-12-12-12-12---------------------------| X4

 

e|----------------------------------------------------------------------|

B|----------------------------------------------------------------------|

G|----------------------------------------------------------------------|

D|-5-5-xxxx-5-5-xxxx-0-0-0----------------------------------------------|

A|-5-5-xxxx-5-5-xxxx-0-0-0----------------------------------------------|

D|-5-5-xxxx-5-5-xxxx-0-0-0----------------------------------------------|

x x x

Chorus

 

e|----------------------------------------------------------------------|

B|----------------------------------------------------------------------|

G|----------------------------------------------------------------------|

D|-0-10-8-3--0-10-8-5--0-10-8-3--0-10-8-7-10----------------------------|

A|-0-10-8-3--0-10-8-5--0-10-8-3--0-10-8-7-10----------------------------|

D|-0-10-8-3--0-10-8-5--0-10-8-3--0-10-8-7-10----------------------------|

 

Outro

 

e|----------------------------------------------------------------------|

B|----------------------------------------------------------------------|

G|----------------------------------------------------------------------|

D|-12121212-10101010-8888-1010-8-10-12121212-14141414-15151515-33-55----|

A|-12121212-10101010-8888-1010-8-10-12121212-14141414-15151515-33-55----|

D|-12121212-10101010-8888-1010-8-10-12121212-14141414-15151515-33-55----|

 

e|----------------------------------------------------------------------|

B|----------------------------------------------------------------------|

G|----------------------------------------------------------------------|

D|-12121212-10101010-8888-1010-8-10-12121212-14141414-8888-10101010-12\-|

A|-12121212-10101010-8888-1010-8-10-12121212-14141414-8888-10101010-12\-|

D|-12121212-10101010-8888-1010-8-10-12121212-14141414-8888-10101010-12\-|

 

| / slide up

| \ slide down

| h hammer-on

| p pull-off

| ~ vibrato

| + harmonic

| x Mute note

| X times played

| 10 played as tens etc.

 

 

Return to my Sum 41 tabs page

The Tablature is Copyright its respective owners.

Sign Up For My Newsletter
Subscribe | Unsubscribe

Site Map | Disclaimer | Privacy Policy | Media Kit | Submissions/Corrections

Website © 2000-2014 mattsmusicpage.com. All rights reserved.

Legal & DMCA: Matt's Music Page has been providing lyrics and tabs in a legal way, paying royalties each year to a few organizations. Then, all lyrics and tabs were removed from the site. Now, there's a new owner to the site, which purchased it August 26, 2014, and he is in negotiation to obtain licensing from BMI at the moment. If you have a specific DMCA request -- please do not hesitate to contact me via the contact button on top. I will do my very best to keep this site fully legal.

Get our toolbar!