Your One-Stop Source For
Music Lyrics
Bass and Guitar Tabs
and More...
Music Lyrics Bass and Guitar Tabs

 

The Tabs Are Below

Learn To Read Tab
Chords Handbook
Corrections & Additions
Get Official Tab
Sum 41 tabs @ 911Tabs

sum 41-heart attack

track 12

TempVoid04@aol.com

 

intro/verse-clean 2x w/o singing, 2x w/

singing

E------------------------------------------------------------------

B------7-------------7------------7-------------7----------------

G---6------6--6--6------6--6--6------6--7--6-------6--6-------------

D------------------------------------------------------------------

A-9--9---9--9--8--8---8--8-------------------------------------------

E-----------------------------7--7---7--7--7--7---7--7----------------

 

prechorus-gtr 2 play this with dist and pm, gtr 1 keep playing the verse

E------------------------------------------------------------------------

B-------------------------------------------------------------------------

G-------------------------------------------------------------------------

D------------------6-6-6-6-6-6-6-6-8-8-8-8-8-8-8-8-8-8-8-8-8-8-8-8----

A-4-4-4-4-4-4-4-4-4-4-4-4-4-4-4-4-6-6-6-6-6-6-6-6-6-6-6-6-6-6-6-6----

E-2-2-2-2-2-2-2-2-------------------------------------------------------

"early mornings..."

 

E------------------------------------------------------------------

B-----------------------------------------------------------------

G----------------------------------------------------6--6--6--6--

D------------------6-6-6-6-6-6-6-6-8-8-8-8-8-8-8-8-6--6--6--6--

A-4-4-4-4-4-4-4-4-4-4-4-4-4-4-4-4-6-6-6-6-6-6-6-6-4--4--4--4--

E-2-2-2-2-2-2-2-2------------------------------------------------

 

 

no pm here

chorus-gtr 1

E---------------------------------------- put some space in between each

chord, like

B---------------------------------------- the chorus to longview by green

day

G--------------------4--4--4--4----

D-4--4--4--4--2--2--4--4--4--4---

A-4--4--4--4--2--2--2--2--2--2--

E-2--2--2--2--0--0--------------- 3x

 

gtr 2

E------------------------------------

B------------------------------------

G-15--15--15--15--13--13--11--11---

D------------------------------------

A-13--13--13--13--11--11---9---9---

E------------------------------------ 4x

 

E------------------------------------ this is gtr 1

B------------------------------------

G--------------8-----6-----------------

D-4--4--4--4--8-----6----------------------

A-4--4--4--4--6-----4----------------------

E-2--2--2--2-----------------------------

"forget reality, waking up is hard to do"

postchorus-both guitars, listen for the rhythm

E-----------------------------------------------------------------------------

-

B-----------------------------------------------------------------------------

G-11-11-11-11-8-8-8-8--------11-11-11-11-11-11-8-8-8-8-------------------

D-11-11-11-11-8-8-8-8--------11-11-11-11-11-11-8-8-8-8------------------

A-9---9--8--8-6-6-6-6-----6h8-9--9--8--8--8--8--6-6-6-6-------------------

E-----------------------6h7--------------------------------6h7-6h7/9~--------

verse

prechorus

E----------------------------------------------------------------------

B----------------------------------------------------------------------

G------------------6-6-6-6-6-6-6-6-4-4-4-4-6-6-6-6--------4-----6----

D-4-4-4-4-4-4-4-4-6-6-6-6-6-6-6-6-4-4-4-4-6-6-6-6--------4-----6---

A-4-4-4-4-4-4-4-4-4-4-4-4-4-4-4-4-2-2-2-2-4-4-4-4--------2-----4----

E-2-2-2-2-2-2-2-2------------------------------------- 2x "cause waking up is

hard..."

pm............................................................................

 

............................................ un-pm every 3rd chord

gtr 2 plays a F octave 4x then an F# octave 4x instead of the C# chord

 

E------------------------------------

B------------------------------------

G-4-----6------------------------------

D-4-----6------------------------------

A-2-----4------------------------------

E------------------------------------

"cause waking up is hard to do, so"

chorus

interlude

gtr 1 play an F# octave the whole time, listen for rhythm

gtr 2

E------------------------------------

B------------------------------------

G--------4----------------------------

D-4---2--4---2--2- 8/9\8-6--------

A-4---2--2---2--2- 8/9\8-6------- 4x

E-2---0------0--0--6/7\6-4-------

intro/verse

prechorus-play verse too

E--------------------------------------------------

B--------------------------------------------------

G-4-4-4-4-4-4-4-4-6-6-6-6-6-6-6-4---6--6--6--6--

D-4-4-4-4-4-4-4-4-6-6-6-6-6-6-6-4---6--6--6--6--

A-2-2-2-2-2-2-2-2-4-4-4-4-4-4-4-2---4--4--4--4--

E---------------------------------------------------

come in when he sings "can't make time..."

chorus

interlude 4x the F# octave come in on the 3rd

time

 

 

Return to my Sum 41 tabs page

The Tablature is Copyright its respective owners.

Sign Up For My Newsletter
Subscribe | Unsubscribe

Site Map | Disclaimer | Privacy Policy | Media Kit | Submissions/Corrections

Website © 2000-2014 mattsmusicpage.com. All rights reserved.

Legal & DMCA: Matt's Music Page has been providing lyrics and tabs in a legal way, paying royalties each year to a few organizations. Then, all lyrics and tabs were removed from the site. Now, there's a new owner to the site, which purchased it August 26, 2014, and he is in negotiation to obtain licensing from BMI at the moment. If you have a specific DMCA request -- please do not hesitate to contact me via the contact button on top. I will do my very best to keep this site fully legal.

Get our toolbar!

 

Hard Rock Pin Las Vegas 4th of july red white and blue guitar
$5.0
Hard Rock Pin Las Vegas 4th of july red white and blue guitar picture


Hard Rock Pin Hollywood Fl Bell Girl with dice luggage and guitar
$5.0
Hard Rock Pin Hollywood Fl Bell Girl with dice luggage and guitar picture


Hard Rock Pin Las Vegas King of Clubs Guitar rare only 3 lines of info on back
$5.0
Hard Rock Pin Las Vegas King of Clubs Guitar rare only 3 lines of info on back picture


Hard Rock Pin Edmonton guitar pin
$5.0
Hard Rock Pin Edmonton guitar pin picture


Lladro Guitar Boy #4614 - Beautiful Piece of Lladro
$109.0
Lladro Guitar Boy #4614 - Beautiful Piece of Lladro picture