Your One-Stop Source For
Music Lyrics
Bass and Guitar Tabs
and More...
Music Lyrics Bass and Guitar Tabs

 

The Tabs Are Below

Learn To Read Tab
Chords Handbook
Corrections & Additions
Get Official Tab
Sum 41 tabs @ 911Tabs

"Summer"

Sum 41

Half Hour of Power, All Killer No Filler

 

Intro

G----------------------------------------------------------

D----------------------------------------------------------

A-5---2----------555555555-222222222-----------------------

E---------3---5----------------------333333333-555555555---

 

Verse ("It's far beyond your reach...")

G------------------------------------------

D------------------------------------------

A-555555555-222222222----------------------

E---------------------000000000-333333333--

 

After Verse play this (also when guitar plays octave riff)

G-------------------------------------------------------

D-------------------------------------------------------

A-555555555-222222222------5--------5-------------------

E---------------------3-33---33-333---33--555555555555--

 

Pre-chorus ("you can't let it go...") "whoa oh oh..."

G---------- G----------------------------

D---------- D----------------------------

A---------- A-5-555-2-222----------------

E-0~--3~--- E-------------3-3333-3-3333--

 

on the last time play

G-------------------

D-------------------

A-5-555-2r----------

E----------3333333--

 

Chorus ("It's not in what you do...")

G------------------------------------------

D------------------------------------------

A-55555555-222222222-----------------------

E--------------------333333333-555555555---

 

Great song

 

Matt Nielsen rx_bandit46@hotmail.com

 

Return to my Sum 41 bass tabs page

The Tablature is Copyright its respective owners.

Sign Up For My Newsletter
Subscribe | Unsubscribe

Site Map | Disclaimer | Privacy Policy | Media Kit | Submissions/Corrections

Website © 2000-2014 mattsmusicpage.com. All rights reserved.

Legal & DMCA: Matt's Music Page has been providing lyrics and tabs in a legal way, paying royalties each year to a few organizations. Then, all lyrics and tabs were removed from the site. Now, there's a new owner to the site, which purchased it August 26, 2014, and he is in negotiation to obtain licensing from BMI at the moment. If you have a specific DMCA request -- please do not hesitate to contact me via the contact button on top. I will do my very best to keep this site fully legal.

Get our toolbar!