Your One-Stop Source For
Music Lyrics
Bass and Guitar Tabs
and More...
Music Lyrics Bass and Guitar Tabs

 

The Tabs Are Below

Learn To Read Tab
Chords Handbook
Corrections & Additions
Get Official Tab
Sum 41 tabs @ 911Tabs

Sum 41

"Rhythms"

Tabbed By Adam

 

INTRO

G--------------------------------|

D-----999----999----666----666---|

A--777----777----444----444------|

E--------------------------------|

 

G--------------------------------|

D-----999----999-----------------|

A--777----777--------------------|

E----------------5555555555555---|

 

VERSE ("Mad in a way, but I don't stay")

G--------------------------------------------|

D-----99-77-66-------------------------------|

A--77----------4444-66-77--------------44-66-| (x2)

E-------------------------555555555555-------|

 

G----------------------|

D----------------------|

A-------4444-00000000--|

E--0000----------------|

 

G-----------------------|

D-----------------------|

A-------4444-(pause)-0--|

E--0000-----------------|

 

PRE-CHORUS ("What if I would say...")

G----------------------|

D----------------------|

A-------4-----0------2-|

E--0-------------------|

 

CHORUS ("I know what I want...")

G-----------------------|

D-----------------------|

A--7777-444-6-----------| (x2)

E-------------5555-7777-|

 

("Since you found me out...")

G-----------------------|

D-----------------------|

A--7777------4444-------| (x2)

E-------7777------55-77-|

 

INTRO

 

VERSE

 

PRE-CHORUS (No Bass)

 

BREAK ("I know what I want...")

G------------------|

D------------------|

A--7----4----------| (x2)

E------------5-----|

 

("All the time you thought worth saving...")

G----------------------|

D----------------------|

A-------4444-00000000--| (x2)

E--0000----------------|

 

CHORUS (First part x2, Then 2nd part x1)

 

INTRO

 

ENDING

G------------------------|

D------------------------|

A------------------------| (x2)

E--0000-0000-0000--0--0--|

 

 

Questions, comments, requests...E-Mail me at

mystery7punk@hotmail.com

 

Return to my Sum 41 bass tabs page

The Tablature is Copyright its respective owners.

Sign Up For My Newsletter
Subscribe | Unsubscribe

Site Map | Disclaimer | Privacy Policy | Media Kit | Submissions/Corrections

Website © 2000-2014 mattsmusicpage.com. All rights reserved.

Legal & DMCA: Matt's Music Page has been providing lyrics and tabs in a legal way, paying royalties each year to a few organizations. Then, all lyrics and tabs were removed from the site. Now, there's a new owner to the site, which purchased it August 26, 2014, and he is in negotiation to obtain licensing from BMI at the moment. If you have a specific DMCA request -- please do not hesitate to contact me via the contact button on top. I will do my very best to keep this site fully legal.

Get our toolbar!