Your One-Stop Source For
Music Lyrics
Bass and Guitar Tabs
and More...
Music Lyrics Bass and Guitar Tabs

 

The Tabs Are Below

Learn To Read Tab
Chords Handbook
Corrections & Additions
Get Official Tab
Sum 41 tabs @ 911Tabs

Pain for pleasure

Sum 41 - All killer no filler

Tabbed by: Buster243@aol.com

Previously tabbed by: spike1007@hotmail.com, pugs_113@hotmail.com

 

Intro (after guitar intro)

G|-------------------------------------------|

D|-------------------------------------------|

A|--6------6-4------4-2------2-1------1-4-6--|

E|-------------------------------------------|

 

Pre-chorus

 

1st time

G|------------------------------------|

D|------------------------------------|

A|--66------44------22------11--------|

E|-------------------------------1-4--|

 

2nd time

G|-------------------------------|

D|-------------------------------|

A|--66------44------22------11---|

E|-------------------------------|

 

Chorus (play 6x)

G|--------------------------------------------------------------------|

D|-----------------------------------------------------------3-4-3----|

A|--6-6-6-6-6-6-6-6--4-4-4-4-4-4-4-4--2-2-2-2-2-2-2-2--1-1-1-------6-4|

E|--------------------------------------------------------------------|

 

G|-------------------|

D|-------------------|

A|--1-1-1-1-1-1-1-1--|

E|-------------------|

 

Post chorus (play 1x)

G|----------------------------|

D|--------------------4---6---|

A|--6------4-6---6---2-2-4-4--|

E|----------------------------|

 

Outro (play 1x)

G|----------------------------------------------------|

D|----------------------4---6----4---6----------------|

A|--6------4-6---6-----2-2-4-4--2-2-4-4--6-----6-4-6--|

E|----------------------------------------------------|

 

 

Return to my Sum 41 bass tabs page

The Tablature is Copyright its respective owners.

Sign Up For My Newsletter
Subscribe | Unsubscribe

Site Map | Disclaimer | Privacy Policy | Media Kit | Submissions/Corrections

Website © 2000-2014 mattsmusicpage.com. All rights reserved.

Legal & DMCA: Matt's Music Page has been providing lyrics and tabs in a legal way, paying royalties each year to a few organizations. Then, all lyrics and tabs were removed from the site. Now, there's a new owner to the site, which purchased it August 26, 2014, and he is in negotiation to obtain licensing from BMI at the moment. If you have a specific DMCA request -- please do not hesitate to contact me via the contact button on top. I will do my very best to keep this site fully legal.

Get our toolbar!

 

VINTAGE SORRENTO MUSIC JEWELRY BOX
$45.0
VINTAGE SORRENTO MUSIC JEWELRY BOX picture


VINTAGE LACQUERED MUSIC BOX JAPAN
$25.99
VINTAGE LACQUERED MUSIC BOX JAPAN picture


Vintage Kehlsteinhaus Bavaria Germany Colorscope Cow Bell View Master Music Box
$8.99
Vintage Kehlsteinhaus Bavaria Germany Colorscope Cow Bell View Master Music Box picture


VINTAGE SCHMIDT Signed Collectible Musical Turning Clown
$9.99
VINTAGE  SCHMIDT Signed Collectible Musical Turning Clown picture


Vintage - Linen - Postcard - Stage - Radio City Music Hall - New York City
$3.75
Vintage - Linen - Postcard - Stage - Radio City Music Hall - New York City   picture