Your One-Stop Source For
Music Lyrics
Bass and Guitar Tabs
and More...
Music Lyrics Bass and Guitar Tabs

 

The Tabs Are Below

Learn To Read Tab
Chords Handbook
Corrections & Additions
Get Official Tab
Sum 41 tabs @ 911Tabs

 

NOTHING ON MY BACK - Sum 41

-------------------------------------------------------------------------------

 

Intro:

G|--------||-----------------------| |------------------------|

D|--------||-------------------5h7-| |------------------------|

A|-5-5-5\-||-0-xx-5h7------5-5-----|(x3)|-0-xx-5h7------5-5-5-5\-|

E|--------||----------3-xx---------| |----------3-xx----------|

 

Verse:

G|-----------|

D|-----------|

A|-----------|

E|-3-3h4h5-5-|

 

G|---------------------------------------|

D|---------------------------------------|

A|---------------------------------------|

E|-3--2-3--3-2--2-0--0--5v-3-3h4h5-5--5v-|

 

G|------------------|

D|------------------|

A|-----------5v-----|

E|-3--2-3--3-----0v-|

 

Chorus:

G|----------------------------| |----------------------|

D|----------------------------| |----------------------|

A|--------------5-5-5\--------|(x3)|--------------5-5-5---|

E|-5-5-5p4-3--3-------4-4-4/5-| |-5-5-5p4-3--3-------0-|

 

G|-----------------------| |-----------------------|

D|-------------------5h7-| |-----------------------|

A|-0-xx-5h7------5-5-----|(x3)|-0-xx-5h7------5-5-5-5-|

E|----------3-xx---------| |----------3-xx---------|

 

Verse:

G|--------------------------------------------------7-7-7-|

D|--------------------------------------------------0-0-0-|

A|-0-0-0---------0-0-0--5-5-5--0-0-0---------0-0-0--5-5-5-|

E|--------3-3-3-----------------------3-3-3---------------|

 

G|--------------------------------------------------7-7-7---|

D|--------------------------------------------------0-0-0-7-|

A|-0-0-0---------0-0-0--5-5-5--0-0-0---------0-0-0--5-5-5---|

E|--------3-3-3-----------------------3-3-3-----------------|

 

G|--------------------------------------------------7-7-7-|

D|--------------------------------------------------0-0-0-|

A|-0-0-0---------0-0-0--5-5-5--0-0-0---------0-0-0--5-5-5-|

E|--------3-3-3-----------------------3-3-3---------------|

 

G|----------------|

D|----------------|

A|5---------------|

E|-----0--0-0-0-0-|

 

Chorus:

G|----------------------------| |----------------------|

D|----------------------------| |----------------------|

A|--------------5-5-5\--------|(x3)|--------------5-5-5---|

E|-5-5-5p4-3--3-------4-4-4/5-| |-5-5-5p4-3--3-------0-|

 

G|--------------------|

D|-2v-------------1-1-|

A|----5-5-5-0-0-0-----|(x4)

E|--------------------|

 

G|-----------------| |----|

D|-------------1-1-| |----|

A|-5-5-5-0-0-0-----|(x3)|-0v-|

E|-----------------| |----|

 

Bridge:

G|---------------------------------|

D|---------------------------------|

A|---------5-5-5-5-----------------|(x8)

E|-0-0-0-0---------5-5-5-5-7-7-7-7-|

 

End:

G|---------------------------------|

D|---------------------------------|

A|-7-7-7p6-5---5-5-----------------|(x3)

E|-----------------5-5-5-5-7-7-7-7-|

 

G|-------------------------|

D|-------------------------|

A|-7-7-7p6-5---5-5---------|

E|-----------------5-5-5-7-|

 

Return to my Sum 41 bass tabs page

The Tablature is Copyright its respective owners.

Sign Up For My Newsletter
Subscribe | Unsubscribe

Site Map | Disclaimer | Privacy Policy | Media Kit | Submissions/Corrections

Website © 2000-2014 mattsmusicpage.com. All rights reserved.

Legal & DMCA: Matt's Music Page has been providing lyrics and tabs in a legal way, paying royalties each year to a few organizations. Then, all lyrics and tabs were removed from the site. Now, there's a new owner to the site, which purchased it August 26, 2014, and he is in negotiation to obtain licensing from BMI at the moment. If you have a specific DMCA request -- please do not hesitate to contact me via the contact button on top. I will do my very best to keep this site fully legal.

Get our toolbar!

 

VINTAGE SORRENTO MUSIC JEWELRY BOX
$45.0
VINTAGE SORRENTO MUSIC JEWELRY BOX picture


VINTAGE LACQUERED MUSIC BOX JAPAN
$25.99
VINTAGE LACQUERED MUSIC BOX JAPAN picture


Vintage Kehlsteinhaus Bavaria Germany Colorscope Cow Bell View Master Music Box
$8.99
Vintage Kehlsteinhaus Bavaria Germany Colorscope Cow Bell View Master Music Box picture


VINTAGE SCHMIDT Signed Collectible Musical Turning Clown
$9.99
VINTAGE  SCHMIDT Signed Collectible Musical Turning Clown picture


Vintage - Linen - Postcard - Stage - Radio City Music Hall - New York City
$3.75
Vintage - Linen - Postcard - Stage - Radio City Music Hall - New York City   picture