Your One-Stop Source For
Music Lyrics
Bass and Guitar Tabs
and More...
Music Lyrics Bass and Guitar Tabs

 

The Tabs Are Below

Learn To Read Tab
Chords Handbook
Corrections & Additions
Get Official Tab
Sum 41 tabs @ 911Tabs

Sum 41 - My Direction

Album: Does this Look Infected?

Tabbed By: PunkBoy13

Notes: Drop D, alt. chorus is A-8-6 D-8 if you prefer it an octave up, tab is 98% correct

 

Chorus

G-------------------|-------------------|-----|

D-------------------|-------------------|-----|

A---------1-1-------|---------1-1-------|-----|

D-3--1-1-------3-3--|-3--1-1-------3-3--|-/E\-|

 

G ----------------|-----------------|

D----------1--3-3-|-----------------|

A--------1--------|--------1--------|

D-3--1-1----------|-3--1-1---6--3-3-|

~Break

G----------------|-------------|----------------------|

D--------------8-|-----------8-|----------------------|

A-\8--8-8-6-5----|--8-8-6-5----|-8(x8)--6(x4)---------|

D----------------|-------------|---------------8(x4)--|

 

G------------------------|

D-----------------8(x4)--|

A--8(x8)--10(x4)---------|

D------------------------|

*Chorus

~Break

G----------------|--------------|

D----------------|--------------| REPEAT

A-8(x4)-6-6------|-8(x4)-6---6--|

D-----------8-8--|---------8----|

 

G------------------|--------------------|-----------------|-------------|

D--------------7/8-|--------------8\7/8-|-------------7/8-|-------------|

A-8(x4)--6-6-5-----|-8(x4)--10-10-------|-8(x4)-6-6-5----|-8(x4)-6>----|

D------------------|--------------------|----------------|----------8\-|

*Chorus

G---------|-------|-------------|

D---------|-------|-------------|

A-8-8-8-8-|-8-8-8-|-6-8-6---6-6-|

D---------|-------|-------8-----|

4x

G-------------------|

D-------------------|

A-8-8-6-8-6---6-----|

D-----------8---8-8-|

 

G---------|---------|--------------|--------------|---------------|------------|

D---------|---------|--------------|--------------|---------------|------------|

A-3--1--3-|-3--1--3-|-3--1--3--1---|-3--1--3--1---|--3--1--3--1---|--3--1--3-/-|

D---------|---------|------------3-|------------3-|-------------3-|------------|

 

Chorus

 

 

 

Return to my Sum 41 bass tabs page

The Tablature is Copyright its respective owners.

Sign Up For My Newsletter
Subscribe | Unsubscribe

Site Map | Disclaimer | Privacy Policy | Media Kit | Submissions/Corrections

Website © 2000-2014 mattsmusicpage.com. All rights reserved.

Legal & DMCA: Matt's Music Page has been providing lyrics and tabs in a legal way, paying royalties each year to a few organizations. Then, all lyrics and tabs were removed from the site. Now, there's a new owner to the site, which purchased it August 26, 2014, and he is in negotiation to obtain licensing from BMI at the moment. If you have a specific DMCA request -- please do not hesitate to contact me via the contact button on top. I will do my very best to keep this site fully legal.

Get our toolbar!

 

® Elvis Presley Figure with Bars & Vinyl Record Stage
$23.99
® Elvis Presley Figure with Bars & Vinyl Record Stage picture


THE LONGINES SYMPHONETTE "SENTIMENTAL JOURNEY" VINTAGE VINYL ALBUM RECORD BOWL
$19.99
 THE LONGINES SYMPHONETTE


African Ghana Medley Vinyl Phono Record Beads (8mm) Ghana
$15.0
African Ghana Medley Vinyl Phono Record Beads (8mm)  Ghana picture


African Yellow Vinyl Phono Record Beads (6mm) Ghana
$12.0
African Yellow Vinyl Phono Record Beads (6mm)  Ghana picture


African Vintage Vinyl Phono Record Beads (7mm - Set of 4) Ghana
$69.0
African Vintage Vinyl Phono Record Beads (7mm - Set of 4)  Ghana picture