Your One-Stop Source For
Music Lyrics
Bass and Guitar Tabs
and More...
>Music Lyrics Bass and Guitar Tabs

 

The Tabs Are Below

Learn To Read Tab
Chords Handbook
Corrections & Additions
Get Official Tab
Sum 41 tabs @ 911Tabs

intro

G------------------------------------------------------|

D------------------------------------------------------|

A--------------------------------9~--8~---6~--11---9--8|

E0-----0-0-0-0---------0-0-0-0-------------------------|

 

main riffx2

G-------------------------------------|

D-------------------------------------|

A99999999--55555555--77777777-99999999|

E-------------------------------------|

 

verse

G--N--|

D--O--|

A--N--|

E--E--|

 

pre chorus1 x2

G-------------------------------------|

D-------------------------------------|

A-7--7-7-7---5-5-5---3--3-3-3----5-5-5|

E-------------------------------------|

 

pre chorus2 x2

G-----------------------------------------------------|

D-----------------------------------------------------|

A----------------------------------5-5-5-5-5--3-3-3-3-|

E-000000000-----0--0----0000000-----------------------|

 

chorusx2, is same as pre chorus #1

 

main riff x2

 

verse

 

pre chorus 3 x2

G---------------------------|

D---------------------------|

A----7---5-5-5--3-3-0--3-0--|

E-0------------------------0|

 

pre chorus 2 x2

 

chorus x6

 

interlude#1

G---------------------------------------------------|

D---------------------------------------------------|

A---------------------------------------------------|

E0----------7-5-3-0----------0-0--------7-5-3-0--0-0|

 

G-------------------------------|

D-------------------------------|

A-------------------------------|

E---------0----0---------0-----0|

just play E-0 alot of times, its how i play it

interlude part 2 x2

G------------------------------------------|

D------------------------------------------|

A------------------------------------------|

E000000000000000000000000000000000000000000|

 

main riff x2

 

outro

G--------------------------|

D--------------------------|

A--------------------------|

E0----0----0---0---0-0-0--2|

 

 

Return to my Sum 41 bass tabs page

The Tablature is Copyright its respective owners.

Sign Up For My Newsletter
Subscribe | Unsubscribe

Site Map | Disclaimer | Privacy Policy | Media Kit | Submissions/Corrections

Website © 2000-2014 mattsmusicpage.com. All rights reserved.

Legal & DMCA: Matt's Music Page has been providing lyrics and tabs in a legal way, paying royalties each year to a few organizations. Then, all lyrics and tabs were removed from the site. Now, there's a new owner to the site, which purchased it August 26, 2014, and he is in negotiation to obtain licensing from BMI at the moment. If you have a specific DMCA request -- please do not hesitate to contact me via the contact button on top. I will do my very best to keep this site fully legal.

Get our toolbar!

 

"Pete's Dragon" Read Along Book & 7" Vinyl Record. 33RPM. Walt Disney. #369
$6.49


VINTAGE/MID CENTURY LETTER HOLDER BUTTERFLY DISH,VINYL RECORDS,CHRISTMAS CARD
$7.99
VINTAGE/MID CENTURY LETTER HOLDER BUTTERFLY DISH,VINYL RECORDS,CHRISTMAS CARD picture


Vintage 1950s 45 LP Vinyl Record Holder Rack Stand, Holds 60
$9.99
Vintage 1950s 45 LP Vinyl Record Holder Rack Stand,  Holds 60 picture


PRESIDENT JFK JOHN FITZGERALD KENNEDY 1917-1963 A MEMORIAL ALBUM VINYL RECORD
$8.0
PRESIDENT JFK JOHN FITZGERALD KENNEDY 1917-1963 A MEMORIAL ALBUM VINYL RECORD picture


Disney Parks Vinyl Record Collection Star Wars the Force Awakens 2 disc set
$21.95
Disney Parks Vinyl Record Collection Star Wars the Force Awakens 2 disc set picture