Your One-Stop Source For
Music Lyrics
Bass and Guitar Tabs
and More...
Music Lyrics Bass and Guitar Tabs

 

The Tabs Are Below

Learn To Read Tab
Chords Handbook
Corrections & Additions
Get Official Tab
Sum 41 tabs @ 911Tabs

MOTIVATION - Sum 41

 

By:Danimalrm80@hotmail.com

 

into1:

G|---------------------------------------------------------------------------|

D|---------------------------------------------------------------------------|

A|---------------------------------------------------------------------------|

E|0-0---------0-0---------0-0-----------0-0--/////---------------------------|

 

intro2:

G|---------------------------------------------------------------------------|

D|---------------------------------------------------------------------------|

A|---------------------------------------------------------------------------|

E|0-0-0-4-5-5-5-0-0-0-4-5-5-5-0-0-0-4-5-5-5-7-7-7-5-5-5-5--------------------|

 

verse:

G|---------------------------------------------------------------------------|

D|---------------------------------------------------------------------------|

A|---------------------------------------------------------------------------|

E|0-0-0--4-4-4-5-5-5-7-7-7---------------------------------------------------|

 

chorus:

G|-------------------------------------------------------------------------------|

D|-------------------------------------------------------------------------------|

A|----------------------------------------7-7-7-7-7-7-7--------------------------|

E|12-12-12-12-12-12-12-12-7-7-7-7-7-7-7-7---------------5-5-5-5-7-7-7-7---5----7-|

 

Bridge1:

G|---------------------------------------------------------------------------|

D|---------------------------------------------------------------------------|

A|---------------------------------------------------------------------------|

E|7-7-7-7-7-7-7-7-2-2-2-2-2-2-2-2-7-7-7-7-7-7-7-7-5-5-5-5-5-5-5--------------|

 

Bridge2: x3

G|----------|-------------------------------|----------------------------------|

D|----------|-------------------------------|----------------------------------|

A|----------|-------------------------------|----------------------------------|

E|0-7-7-7-5-|2-2-2-2-2-2-2-2-5-5-5-5-5-5-5-5|0-0---------0-0-----------0-0-----|

 

Bass solo:

G|--------11-9------14-13-11-9-----------------------------------------------|

D|9-11-14------9-14----------------------------------------------------------|

A|---------------------------------------------------------------------------|

E|---------------------------------------------------------------------------|

 

G|---------------------------------------------------------------------------|

D|---------------------------------------------------------------------------|

A|---------------------------------------------------------------------------|

E|---------------------------------------------------------------------------|

 

Return to my Sum 41 bass tabs page

The Tablature is Copyright its respective owners.

Sign Up For My Newsletter
Subscribe | Unsubscribe

Site Map | Disclaimer | Privacy Policy | Media Kit | Submissions/Corrections

Website © 2000-2014 mattsmusicpage.com. All rights reserved.

Legal & DMCA: Matt's Music Page has been providing lyrics and tabs in a legal way, paying royalties each year to a few organizations. Then, all lyrics and tabs were removed from the site. Now, there's a new owner to the site, which purchased it August 26, 2014, and he is in negotiation to obtain licensing from BMI at the moment. If you have a specific DMCA request -- please do not hesitate to contact me via the contact button on top. I will do my very best to keep this site fully legal.

Get our toolbar!