Your One-Stop Source For
Music Lyrics
Bass and Guitar Tabs
and More...
Music Lyrics Bass and Guitar Tabs

 

The Tabs Are Below

Learn To Read Tab
Chords Handbook
Corrections & Additions
Get Official Tab
Sum 41 tabs @ 911Tabs

THE BITTER END

As recorded by Sum 41

(From the 2004 Album CHUCK)

 

Words and Music by Sum 41

Transcribed by Oystein Jaren Samuelsen

 

F5 B5/C#

2 4 4 x x x 10 10 10 x x x

 

Gtr I (D# G# C# F# A# D#) - 'Rhythm guitar 1'

Gtr II (D# G# C# F# A# D#) - 'Rhythm guitar 2'

Gtr III (D# G# C# F# A# D#) - 'Lead guitar'

Gtr IV (D# G# C# F# A# D#) - 'Octaver for gtr 1'

 

Intro

Fast Rock Q=204

F#5 E5 D5 C#5 A5 G#5

4/4

Gtrs I, II

W S S S S q S S S S q W E E Q E E Q

||-----------|-----------------------|----------|------------------||

||o----------|-----------------------|----------|-----------------o||

||-----------|-9-9-9-9-9--7-7-7-7-7--|-6--------|------------------||

||--4--------|-9-9-9-9-9--7-7-7-7-7--|-6--------|-7-7----6-6-------||

||o-4--------|-7-7-7-7-7--5-5-5-5-5--|-4--------|-7-7----6-6------o||

||--2--------|-----------------------|----------|-5-5----4-4-------||

 

 

Main Riff

F5N.C.

Gtr II

q H. W W W

|

/

 

Gtr I

PM| PM| PM| PM--| PM----| PM| PM| PM--| PM

E E E E E E E E E E E E E E E E E E E E E E E E E E E E E E E E

||-----------------|-----------------|-----------------|-----------------|

||-----------------|-----------------|-----------------|-----------------|

||-----------------|-----------------|-----------------|-----------------|

||-----------------|-----------------|-----------------|-----------------|

||-----5s4-----5s4-|-----5-------4---|-----5s4-----5s4-|-----5-------4---|

||-0-2-3s2-0-2-3s2-|-0-2---2-0-2---2-|-0-2-3s2-0-2-3s2-|-0-2---2-0-2---2-|

 

 

Gtrs I, II

PM| PM| PM| PM--| PM

E E E E E E E E E E E E E E E E 4x

||------------------|------------------||

||o-----------------|-----------------o||

||------------------|------------------||

||------------------|------------------||

||o-----5s4-----5s4-|-----5-------4---o||

||--0-2-3s2-0-2-3s2-|-0-2---2-0-2---2--||

 

 

Pre-Verse

(G5(F#5) (G5(F#5)

Gtr I

E E E E E E E E E E E E E E E E

||--------------------------|-------------------------|

||o-------------------------|-------------------------|

||--12-11-11-11-11-11-11-11-|-12-11-11-11-11-11-11-11-|

||---x--x--x--x--x--x--x--x-|--x--x--x--x--x--x--x--x-|

||o-10--9--9--9--9--9--9--9-|-10--9--9--9--9--9--9--9-|

||--------------------------|-------------------------|

|

| Gtr II

| W W

||--------------------------|-------------------------|

||o-------------------------|-------------------------|

||--------------------------|-------------------------|

||--------------------------|-------------------------|

||o-------------------------|-------------------------|

||--------------------------|-------------------------|

 

 

1. 2.

(G5(F#5) N.C.

2/4

PM-------------------|

E E E E E E E E E E E E E E E E

|-------------------------|-----------||------------||

|-------------------------|----------o||------------||

|-12-11-11-11-11-11-11-11-|-----------||------------||

|--x--x--x--x--x--x--x--x-|-----------||------------||

|-10--9--9--9--9--9--9--9-|----------o||------------||

|-------------------------|-7-8-9-10--||-7-8--9--10-||

|

| W H Q Q

|-------------------------|-----------||------------||

|-------------------------|----------o||------------||

|-------------------------|-----------||------------||

|-------------------------|-----------||-----10\----||

|-------------------------|----------o||-----10\----||

|-------------------------|-----------||-----10\----||

 

 

Verse 1 (and 2, 3)

F#5 A5 C5 B5 F#5 C5B5

4/4

Gtrs I, II

PM| PM--| PM PM| PM| PM| PM|

E E E E E E E E E E E E E E Q E E E E E E E E

||------------------|----------------|-----------------|

||o-----------------|----------------|-----------------|

||------------------|-------5-----4--|-----------5-4-4-|

||------4-------4---|-7-----5-----4--|-----4-----5-4-4-|

||o-----4-------4---|-7-----3-3-3-2--|-----4-----3-2-2-|

||--2-2-2-2-2-2-2-2-|-5-5-5----------|-2-2-2-2-2-------|

 

 

1. 2.

F#5 A5 F#5 A5

PM| PM| PM| PM|

E E E E E E E E E E E E E Q.

|------------------||-----------------|

|-----------------o||-----------------|

|------------------||-----------------|

|-----4-----7-7-7--||-----4-----7-----|

|-----4-----7-7-7-o||-----4-----7-----|

|-2-2-2-2-2-5-5-5--||-2-2-2-2-2-5-----|

 

 

$

$$

F#5 E5 D5 A5 (C#5) (F#(F5)

Gtrs I, II

PM----| PM----| PM----| PM----|

Q S S S S Q S S S S Q S S S S Q Q E E E E E E Q

|------------------------|------------------|------------------|

|------------------------|------------------|------------------|

|-11----------9----------|-7----------------|---------11-10----|

|-11----------9----------|-7----------7--7--|----------x--x----|

|--9--9-9-9-9-7--7-7-7-7-|-5--5-5-5-5-7--7--|-4-4-4-4--9--8----|

|------------------------|------------5--5--|------------------|

 

 

(G5(F#5) (G5(F#5)

Gtr I

E E E E E E E E E E E E E E E E

|-------------------------|-------------------------|

|-------------------------|-------------------------|

|-12-11-11-11-11-11-11-11-|-12-11-11-11-11-11-11-11-|

|--x--x--x--x--x--x--x--x-|--x--x--x--x--x--x--x--x-|

|-10--9--9--9--9--9--9--9-|-10--9--9--9--9--9--9--9-|

|-------------------------|-------------------------|

 

 

(G5(F#5) N.C.

2/4

PM----|

E E E E E E E E E E E E

|-------------------------|----------|

|-------------------------|----------|

|-12-11-11-11-11-11-11-11-|----------|

|--x--x--x--x--x--x--x--x-|----------|

|-10--9--9--9--9--9--9--9-|----------|

|-------------------------|-7-8-9-10-|

 

 

F#5 E D5 A

4/4

Gtr I

Q Q Q Q Q Q Q Q

|-------------------------|-------------------|

|-------------------------|-------------------|

|-11----------13----------|-14----------6--6--|

|--x-----------x----------|--x----------x--x--|

|--9----------11----------|-12----------4--4--|

|-------------------------|-------------------|

|

| Gtr II

| PM----| PM----| PM----|

| Q S S S S Q S S S S Q S S S S Q Q

|-------------------------|-------------------|

|-------------------------|-------------------|

|-11-----------9----------|--7----------------|

|-11-----------9----------|--7----------7--7--|

|--9--9-9-9-9--7--7-7-7-7-|--5--5-5-5-5-7--7--|

|-------------------------|-------------5--5--|

 

 

To Coda

To Coda

(C#5) (F#(F5) F#5

Gtr III

PM----|

E E E E E E Q E E Q E E E E

|------------------|------------------||

|------------------|--------------19--||

|---------11-10----|------------------||

|----------x--x----|-4-4----4-4-------||

|-4-4-4-4--9--8----|-4-4----4-4-------||

|------------------|-2-2----2-2-------||

|

| PM----|

| E E E E E E Q E E Q E E Q

|------------------|------------------||

|------------------|------------------||

|---------11-10----|------------------||

|----------x--x----|-4-4----4-4-------||

|-4-4-4-4--9--8----|-4-4----4-4-------||

|------------------|-2-2----2-2-------||

 

 

Guitar Break

F#5

Gtr III

|--3--| |---3----| |--3--| |---3----|

E E E S S E E E E E S S E E

||-19p17p14-19-19p17p14-19p17p14-19-19p17p14-|

||-------------------------------------------|

||-------------------------------------------|

||-------------------------------------------|

||-------------------------------------------|

||-------------------------------------------|

|

| Gtr II

| W

||-------------------------------------------|

||-------------------------------------------|

||-------------------------------------------|

||--4----------------------------------------|

||--4----------------------------------------|

||--2----------------------------------------|

 

 

E5

|--3--| |---3----| |---3----|

E E E S S E E Q +E +E E

|-19p17p14-19-19p17p14-17b19===(17)r(17)-14-|

|-------------------------------------------|

|-------------------------------------------|

|-------------------------------------------|

|-------------------------------------------|

|-------------------------------------------|

|

| W

|-------------------------------------------|

|-------------------------------------------|

|-------------------------------------------|

|--2----------------------------------------|

|--2----------------------------------------|

|--0----------------------------------------|

 

 

A5 G#5 G5

|--3--| |--3--| |--3--| |--3--| |--3--| |--3--|

E E E E E E E E E E E E E E E E E E E E E E

|-17p14p12-14p12----17p14p12-14p12----|-------------------------------||

|----------------14----------------14-|-17p14p12-14p12----12-14-12----||

|-------------------------------------|----------------14----------14-||

|-------------------------------------|-------------------------------||

|-------------------------------------|-------------------------------||

|-------------------------------------|-------------------------------||

|

| W H Q Q

|-------------------------------------|-------------------------------||

|-------------------------------------|-------------------------------||

|-------------------------------------|-------------------------------||

|--7----------------------------------|--6-----------------5-----5----||

|--7----------------------------------|--6-----------------5-----5----||

|--5----------------------------------|--4-----------------3-----3----||

 

 

Verse 2

F#5 A5 C5 B5 F#5 C5B5 F#5 A5

4/4

~~~~~~~~~~~~~~~~~~~

H. +Q W W W

||-----------------------|----------------|-----------------|------------------|

||-----------------------|----------------|-----------------|------------------|

||-11------------(11)\---|----------------|-----------------|------------------|

||-----------------------|----------------|-----------------|------------------|

||-----------------------|----------------|-----------------|------------------|

||-----------------------|----------------|-----------------|------------------|

|

| Gtrs I, II

| PM-| PM--| PM PM| PM| PM| PM| PM| PM|

| E E E E E E E E E E E E E E Q E E E E E E E E E E E E E E E E

||-----------------------|----------------|-----------------|------------------|

||-----------------------|----------------|-----------------|------------------|

||-----------------------|-------5-----4--|-----------5-4-4-|------------------|

||-------4---------4-----|-7-----5-----4--|-----4-----5-4-4-|-----4-----7-7-7--|

||-------4---------4-----|-7-----3-3-3-2--|-----4-----3-2-2-|-----4-----7-7-7--|

||--2--2-2-2-2-2---2---2-|-5-5-5----------|-2-2-2-2-2-------|-2-2-2-2-2-5-5-5--|

 

 

D.S. al Coda

F#5 A5 C5 B5 F#5 C5B5 F#5 A5

Gtrs I, II

PM| PM--| PM PM| PM| PM| PM| PM| PM|

E E E E E E E E E E E E E E Q E E E E E E E E E E E E E Q.

|-----------------|----------------|-----------------|-----------------|

|-----------------|----------------|-----------------|-----------------|

|-----------------|-------5-----4--|-----------5-4-4-|-----------------|

|-----4-------4---|-7-----5-----4--|-----4-----5-4-4-|-----4-----7-----|

|-----4-------4---|-7-----3-3-3-2--|-----4-----3-2-2-|-----4-----7-----|

|-2-2-2-2-2-2-2-2-|-5-5-5----------|-2-2-2-2-2-------|-2-2-2-2-2-5-----|

 

 

Interlude

&

F#5

Gtr I Gtrs I, IV

E E Q H H. Q S S +E +Q E E E E

|------------------||-------------|------------------------------|

|------------------||-------------|------------------------------|

|------------------||-------------|------------------------------|

|-4-4--------------||-------------|------------------------------|

|-4-4--------------||-9-------11--|-11h=12-(12)-(12)--11h12p11p9-|

|-2-2----/14\------||-------------|------------------------------|

|

| Gtr II

| PM|

| E E Q E E Q W +H. E E

|------------------||-------------|------------------------------|

|------------------||-------------|------------------------------|

|------------------||-------------|------------------------------|

|-4-4------4--4----||-4-----------|-(4)--------------------------|

|-4-4------4--4----||-4-----------|-(4)----------------------4-4-|

|-2-2------2--2----||-2-----------|-(2)----------------------2-2-|

 

 

C#5

H +E +E Q S S +E +Q Q Q

|------------------|---------------------------|

|------------------|---------------------------|

|------------------|---------------------------|

|------------------|---------------------------|

|-7----(7)-(7)S11--|-11s=14-(14)-(14)--12--11--|

|------------------|---------------------------|

|

| W +W

|------------------|---------------------------|

|------------------|---------------------------|

|-6----------------|-(6)-----------------------|

|-6----------------|-(6)-----------------------|

|-4----------------|-(4)-----------------------|

|------------------|---------------------------|

 

 

F#5

|--3---|

H. E +E E H Q. +E

|-------------------|------------------------|

|-------------------|------------------------|

|-------------------|------------------------|

|-------------------|------------------------|

|-9-------11-(11)p9-|-11b12----11b12r===(11)-|

|-------------------|------------------------|

|

| PM|

| W +H. E E

|-------------------|------------------------|

|-------------------|------------------------|

|-------------------|------------------------|

|-4-----------------|-(4)--------------------|

|-4-----------------|-(4)-------------4---4--|

|-2-----------------|-(2)-------------2---2--|

 

 

C#5

H +E +E Q S S +E +Q Q. E

|------------------|-------------------------------||

|------------------|-------------------------------||

|------------------|-------------------------------||

|------------------|-------------------------------||

|-7----(7)-(7)S11--|-11s=14-(14)-(14)--12\---------||

|------------------|-------------------------------||

|

| W +H E Q.

|------------------|-------------------------------||

|------------------|-------------------------------||

|-6----------------|-(6)---------------------------||

|-6----------------|-(6)---------------11--11\-----||

|-4----------------|-(4)---------------11--11\-----||

|------------------|--------------------9---9\-----||

 

 

Pre-Solo

F#5 C#5 E5

Gtr III

|-3--|

H Q Q Q Q Q Q Q Q E E E E Q Q Q Q Q

||---------------|-------------------|-------------------|--------------------|

||---------------|-------------------|----------------10-|-10b12--10--9-10-9--|

||-11----13--14--|-11---13--14--11---|-9--13--9-11-13----|--------------------|

||---------------|-------------------|-------------------|--------------------|

||---------------|-------------------|-------------------|--------------------|

||---------------|-------------------|-------------------|--------------------|

|

| Gtr II

| PM| PM---|

| |-3--|

| W +H. E E W +H Q Q Q

||---------------|-------------------|-------------------|--------------------|

||---------------|-------------------|-------------------|--------------------|

||---------------|-------------------|-6-----------------|-(6)----------------|

||--4------------|-(4)---------------|-6-----------------|-(6)----------------|

||--4------------|-(4)-----------4-4-|-4-----------------|-(4)--------2--2-2--|

||--2------------|-(2)-----------2-2-|-------------------|------------0--0-0--|

 

 

F#5

~~

H Q Q Q Q Q Q

||---------------|-------------------|

||---------------|-------------------|

||-11----13--14--|-11---13--14--11---|

||---------------|-------------------|

||---------------|-------------------|

||---------------|-------------------|

|

| PM|

| W +H. E E

||---------------|-------------------|

||---------------|-------------------|

||---------------|-------------------|

||--4------------|-(4)---------------|

||--4------------|-(4)-----------4-4-|

||--2------------|-(2)-----------2-2-|

 

 

C#5

~~~

Q +E +E +H E E E E E E E E

|----------------------|-----------------------12-|

|----------------------|-----------12----12-14----|

|-9--(9)-(9)b11r(9)----|-11--13-14----14----------|

|----------------------|--------------------------|

|----------------------|--------------------------|

|----------------------|--------------------------|

|

| W +W

|----------------------|--------------------------|

|----------------------|--------------------------|

|-6--------------------|-(6)----------------------|

|-6--------------------|-(6)----------------------|

|-4--------------------|-(4)----------------------|

|----------------------|--------------------------|

 

 

Main Solo

F#5

4/4

S S S S S S E S S S S S S E

||-14-14-14-14-14-14s9s14-14-14-14-14-14s9s|

||-----------------------------------------|

||-----------------------------------------|

||-----------------------------------------|

||-----------------------------------------|

||-----------------------------------------|

|

| PM---| PM------| PM

| E E E E E E E E

||-----------------------------------------|

||-----------------------------------------|

||-----------------------------------------|

||--------------4-------------------4------|

||--------------4-------------------4------|

||--2-----2-----2----2--2-----2-----2----2-|

 

 

A5 C5 B5

S S S S S S E S S S S S S S S

|-14-14-14-14-14-14s9s14-14-14-14-14-14-14-14-|

|---------------------------------------------|

|---------------------------------------------|

|---------------------------------------------|

|---------------------------------------------|

|---------------------------------------------|

|

| PM---| PM---|

| E E E E E E Q

|---------------------------------------------|

|---------------------------------------------|

|-------------------5--------------4----------|

|--7----------------5--------------4----------|

|--7----------------3--3-----3-----2----------|

|--5-----5-----5------------------------------|

 

 

F#5 C5 B5

S S S S S S S S S S S S S S S S

|-19-19-17p14-19-19-17p14-19-19-17p14-19-19-17p14-|

|-------------------------------------------------|

|-------------------------------------------------|

|-------------------------------------------------|

|-------------------------------------------------|

|-------------------------------------------------|

|

| PM---| PM---|

| E E E E E E E E

|-------------------------------------------------|

|-------------------------------------------------|

|--------------------------------5-----4-----4----|

|--------------4-----------------5-----4-----4----|

|--------------4-----------------3-----2-----2----|

|--2-----2-----2-----2-----2----------------------|

 

 

F#5 A5

S S S S S S S S Q. S S

|-19-19-17p14-19-19-17p14-19b21-----17p14--|

|------------------------------------------|

|------------------------------------------|

|------------------------------------------|

|------------------------------------------|

|------------------------------------------|

|

| PM---| PM---|

| E E E E E Q.

|------------------------------------------|

|------------------------------------------|

|------------------------------------------|

|--------------4----------------7----------|

|--------------4----------------7----------|

|--2-----2-----2-----2-----2----5----------|

 

 

F#5

4/4

|---3---| |---3---| |---3---| |---3---|

E E E E E E E E E E E E

|-17p14------14-------------------------------|

|---------17----17---14-17p14------14---------|

|-------------------------------16----16---14-|

|---------------------------------------------|

|---------------------------------------------|

|---------------------------------------------|

|

| PM---| PM---------| PM

| E E E E E E E E

|---------------------------------------------|

|---------------------------------------------|

|---------------------------------------------|

|-------------4---------------------4---------|

|-------------4---------------------4---------|

|--2----2-----2----2-----2----2-----2----2----|

 

 

A5 C5 B5

|---3---| |---3---| |---3---| |--3--|

E E E E E E E E E E E E

|--------------------------------------------|

|--------------------------------------------|

|-16p14------14------------------------------|

|---------16----16---14h16-14------14--------|

|-------------------------------16----16-14--|

|--------------------------------------------|

|

| PM---| PM---|

| E E E E E E Q

|--------------------------------------------|

|--------------------------------------------|

|------------------5----------------4--------|

|--7---------------5----------------4--------|

|--7---------------3-----3----3-----2--------|

|--5----5-----5------------------------------|

 

 

F#5 C5 B5

PM--------------------

|---3---| |---3---| |---3---| |---3---|

E E E E E E E E E E E E

|---------------------------------------------|

|---------------------------------------------|

|---------------------------------------------|

|---------------------------------------------|

|-16p14------14--------------------14------14-|

|---------17----17---16-14-16---17----17------|

|

| PM---| PM---|

| E E E E E E E E

|---------------------------------------------|

|---------------------------------------------|

|-----------------------------5-----4----4----|

|-------------4---------------5-----4----4----|

|-------------4---------------3-----2----2----|

|--2----2-----2----2-----2--------------------|

 

 

F#5 A5

--------------------| ~~~

|---3---| |---3---|

E E E E E E Q. E

|---------------------------------|

|---------------------------------|

|---------------------------------|

|------------14------14-16--------|

|-16-14---16----16----------------|

|---------------------------------|

|

| PM---| PM---|

| E E E E E Q.

|---------------------------------|

|---------------------------------|

|---------------------------------|

|-------------4-------------7-----|

|-------------4-------------7-----|

|--2----2-----2----2-----2--5-----|

 

 

F#5

4/4

|---3---| |---3---| |---3---| |---3---|

E E E E E E E E E E E E

|-21p17---17---------17-21p17--------------17-|

|---------------19--------------19----19------|

|------------18--------------------18---------|

|---------------------------------------------|

|---------------------------------------------|

|---------------------------------------------|

|

| PM---| PM---------| PM

| E E E E E E E E

|---------------------------------------------|

|---------------------------------------------|

|---------------------------------------------|

|-------------4---------------------4---------|

|-------------4---------------------4---------|

|--2----2-----2----2-----2----2-----2----2----|

 

 

A5 C5 B5

|---3---| |---3---| |---3---| |--3--|

E E E E E E E E E E E E

|-21p17--------------17-21p17------------17--|

|---------19----19--------------19----19-----|

|------------18--------------------18--------|

|--------------------------------------------|

|--------------------------------------------|

|--------------------------------------------|

|

| PM---| PM---|

| E E E E E E Q

|--------------------------------------------|

|--------------------------------------------|

|------------------5----------------4--------|

|--7---------------5----------------4--------|

|--7---------------3-----3----3-----2--------|

|--5----5-----5------------------------------|

 

 

F#5 C5 B5

|---3---| |---3---| |---3---| |---3---|

E E E E E E E E E E E E

|-21p17--------------17-21p17--------------17-|

|---------19----19--------------19----19------|

|------------18--------------------18---------|

|---------------------------------------------|

|---------------------------------------------|

|---------------------------------------------|

|

| PM---| PM---|

| E E E E E E E E

|---------------------------------------------|

|---------------------------------------------|

|-----------------------------5-----4----4----|

|-------------4---------------5-----4----4----|

|-------------4---------------3-----2----2----|

|--2----2-----2----2-----2--------------------|

 

 

F#5 A5

|---3---| |---3---|

E E E E E E E S S S S S S

|-21p17--------------17-21-17--17-17-17-17-17-|

|---------19----19----------------------------|

|------------18-------------------------------|

|---------------------------------------------|

|---------------------------------------------|

|---------------------------------------------|

|

| PM---| PM---|

| E E E E E Q.

|---------------------------------------------|

|---------------------------------------------|

|---------------------------------------------|

|-------------4-------------7-----------------|

|-------------4-------------7-----------------|

|--2----2-----2----2-----2--5-----------------|

 

 

F#5

4/4

E S S E S S E S S S S S S

|-21-17-17-22-17-17-21-17-19-19-19-19-19-|

|----------------------------------------|

|----------------------------------------|

|----------------------------------------|

|----------------------------------------|

|----------------------------------------|

|

| PM| PM------| PM

| E E E E E E E E

|----------------------------------------|

|----------------------------------------|

|----------------------------------------|

|-----------4-----------------4----------|

|-----------4-----------------4----------|

|--2--2-----2--2-----2--2-----2-----2----|

 

 

A5 C5 B5

S S S S S S S S S S S S E E

|-17-17-19-19-19-19-19-19-17-17-19-19-16----|

|----------------------------------------19-|

|-------------------------------------------|

|-------------------------------------------|

|-------------------------------------------|

|-------------------------------------------|

|

| PM---| PM---|

| E E E E E E Q

|-------------------------------------------|

|-------------------------------------------|

|--------------------5-----------------4----|

|--7-----------------5-----------------4----|

|--7-----------------3-----3-----3-----2----|

|--5-----5-----5----------------------------|

 

 

F#5 C5 B5

E S S S S S S E S S S S S S

|-17-19-19-19-19-19-19-17-19-19-19-19-19-19-|

|-------------------------------------------|

|-------------------------------------------|

|-------------------------------------------|

|-------------------------------------------|

|-------------------------------------------|

|

| PM| PM---|

| E E E E E E E E

|-------------------------------------------|

|-------------------------------------------|

|--------------------------5-----4-----4----|

|-----------4--------------5-----4-----4----|

|-----------4--------------3-----2-----2----|

|--2--2-----2-----2-----2-------------------|

 

 

F#5 A5

E S S S S S S S S S S S S S S

|-21-19-19-19-19-19-19-21-21-19--19-22-22-19-19--||

|------------------------------------------------||

|------------------------------------------------||

|------------------------------------------------||

|------------------------------------------------||

|------------------------------------------------||

|

| PM| PM---|

| E E E E E Q.

|------------------------------------------------||

|------------------------------------------------||

|------------------------------------------------||

|-----------4-----------------7------------------||

|-----------4-----------------7------------------||

|--2--2-----2-----2-----2-----5------------------||

 

 

Breakdown

F#5

4/4

Q +H +E. +S

||-24b26===(24)----(24)r(24)-|

||---------------------------|

||---------------------------|

||---------------------------|

||---------------------------|

||---------------------------|

|

| W

||---------------------------|

||---------------------------|

||---------------------------|

||--4------------------------|

||--4------------------------|

||--2------------------------|

 

 

E5 D5 C#5 A5 G#5

W W W

|-----------------------|----------|-----------------|

|-----------------------|----------|-----------------|

|-----------------------|----------|-----------------|

|-----------------------|----------|-----------------|

|-----------------------|----------|-----------------|

|-----------------------|----------|-----------------|

|

| S S S S q S S S S q W E E Q E E Q

|-----------------------|----------|-----------------|

|-----------------------|----------|-----------------|

|-9-9-9-9-9--7-7-7-7-7--|-6--------|-----------------|

|-9-9-9-9-9--7-7-7-7-7--|-6--------|-7-7----6-6------|

|-7-7-7-7-7--5-5-5-5-5--|-4--------|-7-7----6-6------|

|-----------------------|----------|-5-5----4-4------|

 

 

(E5)F#(EG5(EB5(E5)G5(EF#(EG5(EF#5 (E5)F#(EG5(EB5(E5)G5(EF#(EG5

Gtrs I, II

PM| PM PM PM PM PM PM PM| PM PM PM PM PM

E E E E E E E E E E E E E E Q E E E E E E E E E E E E E. S Q

|-----------------|----------------|-----------------|------------------||

|-----------------|----------------|-----------------|------------------||

|-------------4---|----------------|-------------4---|------------------||

|-----4---5---4---|-5---4---5---4--|-----4---5---4---|-5---4---5----5---||

|-----4---5---2---|-5---4---5---4--|-----4---5---2---|-5---4---5----5---||

|-0-0-2-0-3-0---0-|-3-0-2-0-3-0-2--|-0-0-2-0-3-0---0-|-3-0-2-0-3----3---||

 

 

Verse 3

F#5 A5 C5 B5 F#5 C5B5

PM| PM--| PM PM| PM| PM| PM|

E E E E E E E E E E E E E E Q E E E E E E E E

||------------------|----------------|-----------------|

||o-----------------|----------------|-----------------|

||------------------|-------5-----4--|-----------5-4-4-|

||------4-------4---|-7-----5-----4--|-----4-----5-4-4-|

||o-----4-------4---|-7-----3-3-3-2--|-----4-----3-2-2-|

||--2-2-2-2-2-2-2-2-|-5-5-5----------|-2-2-2-2-2-------|

 

 

1. 2.

D.S.S. al Dbl. Coda

F#5 A5 F#5 A5

PM| PM| PM| PM|

E E E E E E E E E E E E E Q.

|------------------||-----------------|

|-----------------o||-----------------|

|------------------||-----------------|

|-----4-----7-7-7--||-----4-----7-----|

|-----4-----7-7-7-o||-----4-----7-----|

|-2-2-2-2-2-5-5-5--||-2-2-2-2-2-5-----|

 

 

Main Riff

&&

N.C.

PM| PM| PM| PM--| PM----| PM|

E E E E E E E E E E E E E E E E E E E E E E E E

||------------------|-----------------|-----------------|

||o-----------------|-----------------|-----------------|

||------------------|-----------------|-----------------|

||------------------|-----------------|-----------------|

||o-----5s4-----5s4-|-----5-------4---|-----5s4-----5s4-|

||--0-2-3s2-0-2-3s2-|-0-2---2-0-2---2-|-0-2-3s2-0-2-3s2-|

 

 

F#5

PM| PM--| PM

E E E E E E E E E. S Q E. S Q

|------------------||------------------||

|-----------------o||------------------||

|------------------||------------------||

|------------------||-4-------4--------||

|-----5-------4---o||-4-------4--------||

|-0-2---2-0-2---2--||-2-------2--------||

 

 

Outro

1.

(E5)F#(EG5(EB5(E5)G5(EF#(EG5(EF#5 (E5)F#(EG5(EB5(E5)G5(EF#(EG5

Gtrs I, II

PM| PM PM PM PM PM PM PM| PM PM PM PM PM

E E E E E E E E E E E E E E Q E E E E E E E E E E E E E. S Q

||------------------|----------------|-----------------|------------------||

||o-----------------|----------------|-----------------|-----------------o||

||--------------4---|----------------|-------------4---|------------------||

||------4---5---4---|-5---4---5---4--|-----4---5---4---|-5---4---5----5---||

||o-----4---5---2---|-5---4---5---4--|-----4---5---2---|-5---4---5----5--o||

||--0-0-2-0-3-0---0-|-3-0-2-0-3-0-2--|-0-0-2-0-3-0---0-|-3-0-2-0-3----3---||

 

 

2.

G5(EF#(EG5 G5F#5 A5 G#5 G5

PM PM

E E E E E. S E E E. S Q E. S Q E. S Q E. S Q

|------------------|-----------------|-----------------*|

|------------------|-----------------|-----------------*|

|------------------|-----------------|-----------------*|

|-5---4---5----5s4-|-4-------7-------|-6-------5-------*|

|-5---4---5----5s4-|-4-------7-------|-6-------5-------*|

|-3-0-2-0-3----3s2-|-2-------5-------|-4-------3-------*|

 

 

Duration Legend

---------------

W - whole; H - half; Q - quarter; E - 8th; S - 16th; T - 32nd; X - 64th; a - acciaccatura

+ - note tied to previous; . - note dotted; .. - note double dotted

Uncapitalized letters represent notes that are staccato (1/2 duration)

Irregular groupings are notated above the duration line

Duration letters will always appear directly above the note/fret number it represents the

duration for. Duration letters with no fret number below them represent rests. Multi-

bar rests are notated in the form Wxn, where n is the number of bars to rest for. Low

melody durations appear below the staff

 

Tablature Legend

----------------

h - hammer-on

p - pull-off

b - bend

pb - pre-bend

r - bend release (if no number after the r, then release immediately)

/\ - slide into or out of (from/to "nowhere")

s - legato slide

S - shift slide

- natural harmonic

[n] - artificial harmonic

n(n) - tapped harmonic

~ - vibrato

tr - trill

T - tap

TP - trem. picking

PM - palm muting

\n/ - tremolo bar dip; n = amount to dip

\n - tremolo bar down

n/ - tremolo bar up

/n\ - tremolo bar inverted dip

= - hold bend; also acts as connecting device for hammers/pulls

<> - volume swell (louder/softer)

x - on rhythm slash represents muted slash

o - on rhythm slash represents single note slash

 

Misc Legend

-----------

| - bar

|| - double bar

||o - repeat start

o|| - repeat end

*| - double bar (ending)

: - bar (freetime)

$ - Segno

& - Coda

Tempo markers - = BPM(8/16=s8/s16), where s8 = swing 8ths, s16 = swing 16ths

 

 

Return to my Sum 41 tabs page

The Tablature is Copyright its respective owners.

Sign Up For My Newsletter
Subscribe | Unsubscribe

Site Map | Disclaimer | Privacy Policy | Media Kit | Submissions/Corrections

Website © 2000-2014 mattsmusicpage.com. All rights reserved.

Legal & DMCA: Matt's Music Page has been providing lyrics and tabs in a legal way, paying royalties each year to a few organizations. Then, all lyrics and tabs were removed from the site. Now, there's a new owner to the site, which purchased it August 26, 2014, and he is in negotiation to obtain licensing from BMI at the moment. If you have a specific DMCA request -- please do not hesitate to contact me via the contact button on top. I will do my very best to keep this site fully legal.

Get our toolbar!

 

Starbucks You Are Here Coffee Mug/Cup KENTUCKY - Horses, Banjo, Blue, White
$19.99
Starbucks You Are Here Coffee Mug/Cup KENTUCKY - Horses, Banjo, Blue, White picture


KNOWLES ROCKWELL HERITAGE "THE BANJO PLAYER" FIRST EDITION 1989 PLATE COA
$5.99
KNOWLES ROCKWELL HERITAGE


Vintage Postcard 1981 Disney World Banjo Kings Main Street USA 1981 Postmark
$4.99
 Vintage Postcard 1981 Disney World Banjo Kings Main Street USA 1981 Postmark picture


Banjo Barometer With Thermometer Hygrometer 490mm
$84.76
Banjo Barometer With Thermometer Hygrometer 490mm picture


ANTIQUE JAPANESE NIPPON FIGURINE SET OF 3 WOMEN GEISHA PLAYING DRUM BANJO FAN
$24.0
ANTIQUE JAPANESE NIPPON FIGURINE SET OF 3 WOMEN GEISHA PLAYING DRUM BANJO FAN picture