Your One-Stop Source For
Music Lyrics
Bass and Guitar Tabs
and More...
Music Lyrics Bass and Guitar Tabs

 

The Tabs Are Below

Learn To Read Tab
Chords Handbook
Corrections & Additions
Get Official Tab
Sum 41 tabs @ 911Tabs

Artist: Sum 41

Song: "In Too Deep"

Album: All Killer No Filler

Tuning: Standard (E,A,D,G)

Tabbed By: Cody D'Angelo

Key: \ = Slide Up

/ = Slide Down

 

Intro

G-------------------------|

D-7------7------99--------|

A--77-----77-------4-5-7--|

E-------------------------|

 

Verse 1

G----------------------------------------------------------|

D----------------------------------------------------------|

A-77-99-11-11-13\--------------77-99-11-11-13\-12----------|

E-----------------55-44-55-77---------------------55555555-|

 

Chorus 1 (x7) (x1)

G-----------------------|-------------------------------------|

D-----------------------|-------------------------------------|

A-----------------------|--7-7-7-7--5-5-5-5-------------------|

E-0-0-0-0/-4-5-5-5-5----|----------------------5-5-5-5-5-5-5-5|

 

(x3) (x1)

G-------------|----------|

D-------------|----------|

A------7------|-----7----|

E--00-----5545|--00--5424|

 

Verse 2 (x2) (x2)

G----------------------------|-----------------------------------------|

D----------------------------|-----------------------------------------|

A----------------------------|-----------------------------------------|

E-00--455--5-00--4-55-455--5-|-0-0-0-0-0-0-0-0--5-5-5-5-5-5-5-5--------|

 

Chorus 2 (x6) (x2)

G--------------------|--------------------------------------|

D--------------------|--------------------------------------|

A--------------------|--7-7-7-7--5-5-5-5--------------------|

E-0-0-0-0/-4-5-5-5-5-|-----------------------5-5-5-5-5-5-5-5|

 

Guitar Solo (x2)

G----------------------------|

D----------------------------|

A----------------55555-------|

E-00000-22222-----------55555|

 

Bridge (x4) (x1)

G---------------|-------------------------------------------|

D---------------|-------------------------------------------|

A---------------|--77~--99~--11-11~--12-12~/77~--99~--11-11-|

E-00--22--55--77|-------------------------------------------|

 

Chorus 3 (x3) (x1) (x3)

G----------------|--------------|-------------|

D----------------|--------------|-------------|

A----7-----------|----7---------|----7--------|

E-00---5545------|-00---5424----|-00---5545---|

 

Outro (x2)

G---------------------------------------------------------------------|

D---------------------------------------------------------------------|

A-7-7-7--5-5-5-5--0-0-0-0-0-0-0-0--7-7-7-7--5-5-5-5--0-0-0-0--3-3-3-3-|

E---------------------------------------------------------------------|

 

Play this untill the bass stops:

G------------------------------------|

D------------------------------------|

A-7-7-7-7--5-5-5-5--0-0-0-0--3-3-3-3-|

E------------------------------------|

 

I am actually correcting my own submission because I listened to the song again and noticed that its actually played a little bit different than I had originally tabbed.

 

E-mail me with any comments or corrections at Warrior1512@aol.com

Thanks

 

Return to my Sum 41 bass tabs page

The Tablature is Copyright its respective owners.

Sign Up For My Newsletter
Subscribe | Unsubscribe

Site Map | Disclaimer | Privacy Policy | Media Kit | Submissions/Corrections

Website © 2000-2014 mattsmusicpage.com. All rights reserved.

Legal & DMCA: Matt's Music Page has been providing lyrics and tabs in a legal way, paying royalties each year to a few organizations. Then, all lyrics and tabs were removed from the site. Now, there's a new owner to the site, which purchased it August 26, 2014, and he is in negotiation to obtain licensing from BMI at the moment. If you have a specific DMCA request -- please do not hesitate to contact me via the contact button on top. I will do my very best to keep this site fully legal.

Get our toolbar!

 

Starbucks You Are Here Coffee Mug/Cup KENTUCKY - Horses, Banjo, Blue, White
$19.99
Starbucks You Are Here Coffee Mug/Cup KENTUCKY - Horses, Banjo, Blue, White picture


KNOWLES ROCKWELL HERITAGE "THE BANJO PLAYER" FIRST EDITION 1989 PLATE COA
$5.99
KNOWLES ROCKWELL HERITAGE


Vintage Postcard 1981 Disney World Banjo Kings Main Street USA 1981 Postmark
$4.99
 Vintage Postcard 1981 Disney World Banjo Kings Main Street USA 1981 Postmark picture


Banjo Barometer With Thermometer Hygrometer 490mm
$84.76
Banjo Barometer With Thermometer Hygrometer 490mm picture


ANTIQUE JAPANESE NIPPON FIGURINE SET OF 3 WOMEN GEISHA PLAYING DRUM BANJO FAN
$24.0
ANTIQUE JAPANESE NIPPON FIGURINE SET OF 3 WOMEN GEISHA PLAYING DRUM BANJO FAN picture