Your One-Stop Source For
Music Lyrics
Bass and Guitar Tabs
and More...
Music Lyrics Bass and Guitar Tabs

 

The Tabs Are Below

Learn To Read Tab
Chords Handbook
Corrections & Additions
Get Official Tab
Sum 41 tabs @ 911Tabs

sum 41 - how you remind me (live nickelback cover)

 

 

 

 

 

verse (no bass)

pre chorus (no bass)

 

chorus

|-------------------------|

|-------------------------|

|--3333------1111----6666-| (x2)

|-------1111--------------|

 

|----------------------|

|----------------------|

|--33------1111---6666-|

|-----11---------------|

 

|-------------------------|

|-------------------------|

|--3333------1111----6666-|

|-------1111--------------|

 

this is the part when they say: yeah, yeah...

 

|---------------------|

|---------------------|

|-3333------1111------| (x2)

|------1111------1111-|

 

verse

 

|---------------------|

|---------------------|

|-3333------1111------|

|------1111------1111-|

 

|-------------------------|

|-------------------------|

|--3333------1111----6666-|

|-------1111--------------|

 

pre chorus (this is how you remind me...)

 

|---------------------|

|---------------------|

|-3333------1111------|

|------1111------1111-|

 

|-------------------------|

|-------------------------|

|--3333------1111----6666-|

|-------1111--------------|

 

chorus

 

|-------------------------|

|-------------------------|

|--3333------1111----6666-| (x2)

|-------1111--------------|

 

|----------------------|

|----------------------|

|--33------1111---6666-|

|-----11---------------|

 

|-------------------------|

|-------------------------|

|--3333------1111----6666-|

|-------1111--------------|

 

this is the part when they say: yeah, yeah...

 

|---------------------|

|---------------------|

|-3333------1111------| (x4)

|------1111------1111-|

 

verse (no bass)

pre chorus (no bass)

 

chorus

 

|-------------------------|

|-------------------------|

|--3333------1111----6666-|

|-------1111--------------|

 

|-----------------------|

|-----------------------|

|--3333------1---shut up| (dave's little voice solo (he does it with he's metal voice))

|-------1111------------|

 

|----------------------|

|----------------------|

|--33------1111---6666-|

|-----11---------------|

 

|-------------------------|

|-------------------------|

|--3333------1111----6666-|

|-------1111--------------|

 

this is the part when they say: yeah, yeah...

 

|---------------------|

|---------------------|

|-3333------1111------| (x4)

|------1111------1111-|

 

end

 

|---|

|---|

|-3-|

|---|

 

 

Return to my Sum 41 bass tabs page

The Tablature is Copyright its respective owners.

Sign Up For My Newsletter
Subscribe | Unsubscribe

Site Map | Disclaimer | Privacy Policy | Media Kit | Submissions/Corrections

Website © 2000-2014 mattsmusicpage.com. All rights reserved.

Legal & DMCA: Matt's Music Page has been providing lyrics and tabs in a legal way, paying royalties each year to a few organizations. Then, all lyrics and tabs were removed from the site. Now, there's a new owner to the site, which purchased it August 26, 2014, and he is in negotiation to obtain licensing from BMI at the moment. If you have a specific DMCA request -- please do not hesitate to contact me via the contact button on top. I will do my very best to keep this site fully legal.

Get our toolbar!