Your One-Stop Source For
Music Lyrics
Bass and Guitar Tabs
and More...
Music Lyrics Bass and Guitar Tabs

 

The Tabs Are Below

Learn To Read Tab
Chords Handbook
Corrections & Additions
Get Official Tab
Sum 41 tabs @ 911Tabs

Song: Grab the devil by the horns and Fuck him up the Ass

Band: Sum 41

Album:Half Hour of Power

 

Riff1

g---------------------

d---------------------

a----------2-------

e----3-2-0---2-3---

 

Riff2

g--------------

d--------------

a----7--5--3--

e--------------

 

Riff1

Riff2

Riff1

 

Riff3

g------------------------------------------

d------------------------------------------

a--77777777555555553333333-----

e-------------------------------------------

 

Riff1

Riff3

Riff1

then = A-7

 

Riff4

g--------------

d--------------

a------2------

e--3-2---2-0--

 

Riff5

g-----------------------

d-----------------------

a--7777--7777......---

e------------------------

 

Riff4

Riff5

Riff4

Riff5

Riff4

Riff5

Riff4

end on E-0

 

Return to my Sum 41 bass tabs page

The Tablature is Copyright its respective owners.

Sign Up For My Newsletter
Subscribe | Unsubscribe

Site Map | Disclaimer | Privacy Policy | Media Kit | Submissions/Corrections

Website © 2000-2014 mattsmusicpage.com. All rights reserved.

Legal & DMCA: Matt's Music Page has been providing lyrics and tabs in a legal way, paying royalties each year to a few organizations. Then, all lyrics and tabs were removed from the site. Now, there's a new owner to the site, which purchased it August 26, 2014, and he is in negotiation to obtain licensing from BMI at the moment. If you have a specific DMCA request -- please do not hesitate to contact me via the contact button on top. I will do my very best to keep this site fully legal.

Get our toolbar!