Your One-Stop Source For
Music Lyrics
Bass and Guitar Tabs
and More...
Music Lyrics Bass and Guitar Tabs

 

The Tabs Are Below

Learn To Read Tab
Chords Handbook
Corrections & Additions
Get Official Tab
Sum 41 tabs @ 911Tabs

CRAZY AMANDA BUNKFACE - Sum 41

 

Verse: (No Bass)

 

Chorus:

G|--------------------------|

D|--------------------------|

A|-3-----------5--5--555555-|(x4)

D|-----5---5----------------|

 

Pre-verse:

G|-------------------------| |----|

D|-------------------------| |----|

A|-----------------3v--555-|(x2)|----|

D|-5-5-5-4-5-55555---------| |-5/-|

 

Verse:

G|-------------|

D|-------------|

A|----0v-2v-3v-|

D|-5v----------|

 

G|--------------|

D|--------------|

A|-----------3v-|

D|-5v--4v-3v----|

 

G|--------------------|

D|--------------------|

A|--------------------|

D|-5v--4v---3--33--33-|

 

Chorus:

 

Break:

G|-------------------------------------------------|

D|-------------------------------------------------|

A|-------------------------------------------------|(x4)

D|-0-2-0--2----0-2-0--2----0-2-0--2---0-2-0----4-5-|

 

G|----------------------|

D|----------------------|

A|----------------------|

D|-4-5---4-5---4-5---5v-|

 

Bridge:

G|-------------| |----|

D|-------------| |----|

A|-------------|(x4)|----|

D|-0v-2v-5v-7v-| |-7v-|

 

Chorus:

G|----------------------|

D|----------------------|

A|-5-----------7--7--7v-|(x4)

D|-----7---7------------|

 

End:

G|----|

D|----|

A|----|

D|-7/-|

 

 

Return to my Sum 41 bass tabs page

The Tablature is Copyright its respective owners.

Sign Up For My Newsletter
Subscribe | Unsubscribe

Site Map | Disclaimer | Privacy Policy | Media Kit | Submissions/Corrections

Website © 2000-2014 mattsmusicpage.com. All rights reserved.

Legal & DMCA: Matt's Music Page has been providing lyrics and tabs in a legal way, paying royalties each year to a few organizations. Then, all lyrics and tabs were removed from the site. Now, there's a new owner to the site, which purchased it August 26, 2014, and he is in negotiation to obtain licensing from BMI at the moment. If you have a specific DMCA request -- please do not hesitate to contact me via the contact button on top. I will do my very best to keep this site fully legal.

Get our toolbar!

 

Hard Rock Pin Las Vegas 4th of july red white and blue guitar
$5.0
Hard Rock Pin Las Vegas 4th of july red white and blue guitar picture


Hard Rock Pin Hollywood Fl Bell Girl with dice luggage and guitar
$5.0
Hard Rock Pin Hollywood Fl Bell Girl with dice luggage and guitar picture


Hard Rock Pin Las Vegas King of Clubs Guitar rare only 3 lines of info on back
$5.0
Hard Rock Pin Las Vegas King of Clubs Guitar rare only 3 lines of info on back picture


Hard Rock Pin Edmonton guitar pin
$5.0
Hard Rock Pin Edmonton guitar pin picture


Lladro Guitar Boy #4614 - Beautiful Piece of Lladro
$109.0
Lladro Guitar Boy #4614 - Beautiful Piece of Lladro picture