Your One-Stop Source For
Music Lyrics
Bass and Guitar Tabs
and More...
Music Lyrics Bass and Guitar Tabs

 

The Tabs Are Below

Learn To Read Tab
Chords Handbook
Corrections & Additions
Get Official Tab
Sum 41 tabs @ 911Tabs

Written By: Sum 41

Song: 32 Ways to Die

Tabbed By: Adam Doogan-Smith

E-mail: doogy_411@hotmail.com

 

This song is one of the best drum solos ever for a punk drummer. Stevo plays it with precision and excellent time.

 

Standard Tuning: E,A,D,G

Let Ring: ~

 

Enter at 0:37s

Riff #1

G-----------------------------------0000-------------------------------------------I

D-------------------3333--------------------------3333-----------------------------I

A---3333--33333333--------33333333-------3333333--------33333333-3333333333333333--I

E----------------------------------------------------------------------------------I

 

Bridge

G----------I

D----------I

A---15/3---I Slide slowly, but continue to strum.

E----------I

 

 

 

 

Riff #2

G--------------------------------0-0-0-0---I

D-----------2-3-3-33-2---------------------I

A---3-3-33--------------3-3-333------------I

E------------------------------------------I

 

Riff #3

G---------------------------------0-0-0-0---I

D------------3-3--3333----------------------I

A--3-3-3333-------------3-3-3333------------I

E-------------------------------------------I

 

Riff #4

G-----------------------------------------------I

D-------------3-3-3333------------3-3-3333------I

A---3-3-3333------------3-3-3333------------3---I

E-----------------------------------------------I

 

Riff #1 x1

Bridge x1

Riff #2 x2

Riff #3 x1

Riff #4 x1

 

 

Return to my Sum 41 bass tabs page

The Tablature is Copyright its respective owners.

Sign Up For My Newsletter
Subscribe | Unsubscribe

Site Map | Disclaimer | Privacy Policy | Media Kit | Submissions/Corrections

Website © 2000-2014 mattsmusicpage.com. All rights reserved.

Legal & DMCA: Matt's Music Page has been providing lyrics and tabs in a legal way, paying royalties each year to a few organizations. Then, all lyrics and tabs were removed from the site. Now, there's a new owner to the site, which purchased it August 26, 2014, and he is in negotiation to obtain licensing from BMI at the moment. If you have a specific DMCA request -- please do not hesitate to contact me via the contact button on top. I will do my very best to keep this site fully legal.

Get our toolbar!