Your One-Stop Source For
Music Lyrics
Bass and Guitar Tabs
and More...
Music Lyrics Bass and Guitar Tabs

 

The Tabs Are Below

Learn To Read Tab
Chords Handbook
Corrections & Additions
Get Official Tab
Sum 41 tabs @ 911Tabs

Great song, got bored, figured I'd try to help you guys out.

 

Tabbed by: Josh Renneker

Any questions or comments email me at:

Incohearent@rock.com

 

Tunning: C#

 

Guitar 1 (intro) *distortion*

e------------------------------------------------------------------|

G------------------------------------------------------------------|

B--------------------------------------------22--------------------| Play

D----5-4-22------5-4-22------4-5-44------4-5-----------------------| 4x

A-------------3-3-3-3-----0-0-0-0-----2-2-2-2----------------------|

E-0-0-0-0----------------------------------------------------------|

 

Guitar 2 (intro) *semi clean* - come in with bass and drums

e--7~--------------------------------------| e----------------------|

G--8~-----10---10--12-12-12-12-12-12-12-12-| G-12-8x-13-8x-10-8x-12-|

B--9~--------9------9--9--9--9--9--9--9--9-| then B--9-----9-----9-----9-|

D--9~--------------------------------------| play D----------------------|

A--7~--------------------------------------| this A----------------------|

E------------------------------------------| 2x E----------------------|

 

Guitar 1 *clean* "Wait......"

e-----0-----0-----0-----| e---0---|

G-----0-----1-----1-----| Find Strumming Pattern G---0---|

B-----0-----0-----2-----| B---0---|

D-----2-----2-----2-----| End On D---2---|

A-----2-----3-----0-----| A---2---|

E-----0-----x-----x-----| E---0---|

 

Guitar 1 *distortion* "Cuz I feel like..."

e---------------------------------------------|

G---------------------------------------------|

B---------------7-7-7-7-7-5-5-5-5-5-----------|Play

D---2-2-2-2-2-2-7-7-7-7-7-5-5-5-5-5-5-5-5-5-5-| 2x

A---2-2-2-2-2-2-5-5-5-5-5-3-3-3-3-3-5-5-5-5-5-|

E---0-0-0-0-0-0---------------------3-3-3-3-3-|

 

..continued

e-----------------------------------------------------------------------|

G-----------------------------------------------------------------------|

B---5-5-5-5-5-----------7-7-7-7-7-9-9-9-9-9--5----7---------------------|

D---5-5-5-5-5-5-5-5-5-5-7-7-7-7-7-9-9-9-9-9--5-8x-7-8x-5555-5555-5555-5-|

A---3-3-3-3-3-5-5-5-5-5-5-5-5-5-5-7-7-7-7-7--3----5----5555-5555-5555-5-|

E-------------3-3-3-3-3--------------------------------3330-3330-3330-3-|

 

Guitar 1 *palm muted*

e------------------------------------------------------------------|

G--------------------------play-twice------------------------------|

B------------------------------------------------------------------|

D--2-2-2-2-4-4-4-4-2-2-2-2-4-4-4-4-5-5-5-5-2-2-2-2-2-2-2-2-4-4-4-4-|

A--2-2-2-2-2-2-2-2-2-2-2-2-2-2-2-2-3-3-3-3-0-0-0-0-0-0-0-0-2-2-2-2-|

E--0-0-0-0---------0-0-0-0-----------------------------------------|

 

Guitar 1 *distortion*

e--------------------------------------------------------------------------|

G--------------------------------------------------------------------------|

B------------------5-5-5-5-5----------------------------5-5-5-5-5-7-7-7-7-7|

D-2.2.2.2.2.2.2.2.-5-5-5-5-5-5-5-5-5-5-2.2.2.2.2.2.2.2.-5-5-5-5-5-7-7-7-7-7|

A-2.2.2.2.2.2.2.2.-3-3-3-3-3-5-5-5-5-5-2.2.2.2.2.2.2.2.-3-3-3-3-3-5-5-5-5-5|

E-0.0.0.0.0.0.0.0.-----------3-3-3-3-3-0.0.0.0.0.0.0.0.--------------------|

 

thats all I have for now... enjoy.

 

Return to my Sum 41 tabs page

The Tablature is Copyright its respective owners.

Sign Up For My Newsletter
Subscribe | Unsubscribe

Site Map | Disclaimer | Privacy Policy | Media Kit | Submissions/Corrections

Website © 2000-2014 mattsmusicpage.com. All rights reserved.

Legal & DMCA: Matt's Music Page has been providing lyrics and tabs in a legal way, paying royalties each year to a few organizations. Then, all lyrics and tabs were removed from the site. Now, there's a new owner to the site, which purchased it August 26, 2014, and he is in negotiation to obtain licensing from BMI at the moment. If you have a specific DMCA request -- please do not hesitate to contact me via the contact button on top. I will do my very best to keep this site fully legal.

Get our toolbar!

 

Starbucks You Are Here Coffee Mug/Cup KENTUCKY - Horses, Banjo, Blue, White
$19.99
Starbucks You Are Here Coffee Mug/Cup KENTUCKY - Horses, Banjo, Blue, White picture


KNOWLES ROCKWELL HERITAGE "THE BANJO PLAYER" FIRST EDITION 1989 PLATE COA
$5.99
KNOWLES ROCKWELL HERITAGE


Vintage Postcard 1981 Disney World Banjo Kings Main Street USA 1981 Postmark
$4.99
 Vintage Postcard 1981 Disney World Banjo Kings Main Street USA 1981 Postmark picture


Banjo Barometer With Thermometer Hygrometer 490mm
$84.76
Banjo Barometer With Thermometer Hygrometer 490mm picture


ANTIQUE JAPANESE NIPPON FIGURINE SET OF 3 WOMEN GEISHA PLAYING DRUM BANJO FAN
$24.0
ANTIQUE JAPANESE NIPPON FIGURINE SET OF 3 WOMEN GEISHA PLAYING DRUM BANJO FAN picture