Your One-Stop Source For
Music Lyrics
Bass and Guitar Tabs
and More...
Music Lyrics Bass and Guitar Tabs

 

The Tabs Are Below

Learn To Read Tab
Chords Handbook
Corrections & Additions
Get Official Tab
Sugar Ray tabs @ 911Tabs

Sugar Ray - Tap Twist Snap

Submitted By: diehardtabs

EMail: Mitchell_J@hotmail.com

CD: Floored

Tabber: Mitchell (Mitchell_J@hotmail.com)

Tuning: Dropped D (DADGBe)

 

Another DIEHARD tune from the boys in Sugar Ray. This flat out RAWKS!

This song has many power chords, but don't get discouraged

 

Intro:

e --------------------------------------------------------------------

B -------------6h7p6h7p6-------------6h7p6h7p6-------------6h7p6h7p6--

G -----6---------------------6---------------------6------------------

D -6---6---4-3-----------6---6---4-3-----------6---6---4-3------------

A -6---4---4-3-----------6---4---4-3-----------6---4---4-3------------

D -6-------4-3-----------6-------4-3-----------6-------4-3------------

 

Quick, fun, palm muted part:

e ------------------------------------------------------------------------------

B ------------------------------------------------------------------------------

G -----------------------------------------------------------------------2-3-4--

D -3-3-1-1-1--3-3-1-1-1--3-3-2-1--6-5-4---3-3-1-1-1--3-3-1-1-1--3-3-2-1--2-3-4--

A -3-3-1-1-1--3-3-1-1-1--3-3-2-1--6-5-4---3-3-1-1-1--3-3-1-1-1--3-3-2-1--0-1-2--

D -3-3-1-1-1--3-3-1-1-1--3-3-2-1--6-5-4---3-3-1-1-1--3-3-1-1-1--3-3-2-1---------

 

Verses: On the last time, the "0-1" leads into the pre-chorus.

e -----------------------------------------------------------

B -----------------------------------------------------------

G -----------------------------------------------------------

D -----------------------------------------------------------

A ------------------------------------------------------0-1--

D -3-3-6-6--3-3-6-6--3-3-6-6--3-3-6-6--3-3-6-6--3-3-6-6------

 

Pre-chorus/chorus: Throw in scratches during the C5's "TAP! TWIST! SNAP!"

e --------------------------------------------------------|-------------------

B --------------------------------------------------------|-------------------

G -5-5-5-5-5-5-5-5-5-5--8-8-8--5-5-5-5-5-5-5-5-5-5--3-3-4-|-------------------

D -5-5-5-5-5-5-5-5-5-5--8-8-8--5-5-5-5-5-5-5-5-5-5--3-3-4-|-3--3--3--1-1-1-1--

A -3-3-3-3-3-3-3-3-3-3--6-6-6--3-3-3-3-3-3-3-3-3-3--1-1-2-|-3--3--3--1-1-1-1--

D --------------------------------------------------------|-3--3--3--1-1-1-1--

 

"We're gonna drink tonight, let's go out drinking..."

e ---------------------------------------------------------------------

B -6-----4-----6-----4-------6-----4-----6-----4-----6-----4-----------

G ----5-----3-----5-----3-------5-----3-----5-----3-----5-----3--------

D --------------------------------------------------------------3-3-3--

A --------------------------------------------------------------3-3-3--

D --------------------------------------------------------------3-3-3--

 

Play the intro again here

 

Bridge??: the ***'s represent a pickscrape on the D string

e ------------------------------------------------------------------------

B ------------------------------------------------------------------------

G ---------------2-3-4---------------------------------2-3-4--------------

D -3---6-5-4-3---2-3-4-3---6-5-4-1-------3---6-5-4-3---2-3-4-3---6-5-4-1--

A -3---6-5-4-3---0-1-2-3---6-5-4-1-------3---6-5-4-3---0-1-2-3---6-5-4-1--

D -3---6-5-4-3---------3---6-5-4-1--***--3---6-5-4-3---------3---6-5-4-1--

 

Chords: D#5 E5 F5 F#5 G5 G#5 A5 A#5 B5 C5 C#5 D#5(2)

e x x x x x x x x x x x x

B x x x x x x x x x x x x

G x x x x x x 2 3 4 5 6 8

D 1 2 3 4 5 6 2 3 4 5 6 8

A 1 2 3 4 5 6 0 1 2 3 4 6

D 1 2 3 4 5 6 x x x x x x

 

 

Return to my to my Sugar Ray tabs page

The Tablature is Copyright its respective owners.

Sign Up For My Newsletter
Subscribe | Unsubscribe

Site Map | Disclaimer | Privacy Policy | Media Kit | Submissions/Corrections

Website © 2000-2014 mattsmusicpage.com. All rights reserved.

Legal & DMCA: Matt's Music Page has been providing lyrics and tabs in a legal way, paying royalties each year to a few organizations. Then, all lyrics and tabs were removed from the site. Now, there's a new owner to the site, which purchased it August 26, 2014, and he is in negotiation to obtain licensing from BMI at the moment. If you have a specific DMCA request -- please do not hesitate to contact me via the contact button on top. I will do my very best to keep this site fully legal.

Get our toolbar!

 

Starbucks You Are Here Coffee Mug/Cup KENTUCKY - Horses, Banjo, Blue, White
$19.99
Starbucks You Are Here Coffee Mug/Cup KENTUCKY - Horses, Banjo, Blue, White picture


KNOWLES ROCKWELL HERITAGE "THE BANJO PLAYER" FIRST EDITION 1989 PLATE COA
$5.99
KNOWLES ROCKWELL HERITAGE


Vintage Postcard 1981 Disney World Banjo Kings Main Street USA 1981 Postmark
$4.99
 Vintage Postcard 1981 Disney World Banjo Kings Main Street USA 1981 Postmark picture


Banjo Barometer With Thermometer Hygrometer 490mm
$84.76
Banjo Barometer With Thermometer Hygrometer 490mm picture


ANTIQUE JAPANESE NIPPON FIGURINE SET OF 3 WOMEN GEISHA PLAYING DRUM BANJO FAN
$24.0
ANTIQUE JAPANESE NIPPON FIGURINE SET OF 3 WOMEN GEISHA PLAYING DRUM BANJO FAN picture