Your One-Stop Source For
Music Lyrics
Bass and Guitar Tabs
and More...
>Music Lyrics Bass and Guitar Tabs

 

The Tabs Are Below

Learn To Read Tab
Chords Handbook
Corrections & Additions
Get Official Tab
Sugar Ray tabs @ 911Tabs

Sugar Ray - Stand And Deliver

Tabbed by: Robert Karl (rskjr@mac.com)

 

Tuning: Standard (E A D G B E)

 

This ACTUALLY IS MY FIRST TAB... you see this all over the place, but it really is for me.

This song is from Floored, and I hadn't found the tab anywhere. Plus I like the riff.

Play close to the bridge of the guitar to give it that twangy sound. Let me know if it helps you.

 

 

E|---------------------------------------------------------------------------||

B|---------------------------------------------------------------------------||

G|---------------------------------------------------------------------------||

D|--2-2-2---0-0-----------------------------------------------------------||

A|-------------------3-1-3-------------------------------------------------||

E|-----------------------------3--1-----------------------------------------||

 

E|---------------------------------------------------------------------------||

B|---------------------------------------------------------------------------||

G|---------------------------------------------------------------------------||

D|--2--2---0-0------------------------------------------------------------||

A|-------------------3-1-3-------------------------------------------------||

E|-----------------------------3--1-----------------------------------------||

 

 

Return to my to my Sugar Ray tabs page

The Tablature is Copyright its respective owners.

Sign Up For My Newsletter
Subscribe | Unsubscribe

Site Map | Disclaimer | Privacy Policy | Media Kit | Submissions/Corrections

Website © 2000-2014 mattsmusicpage.com. All rights reserved.

Legal & DMCA: Matt's Music Page has been providing lyrics and tabs in a legal way, paying royalties each year to a few organizations. Then, all lyrics and tabs were removed from the site. Now, there's a new owner to the site, which purchased it August 26, 2014, and he is in negotiation to obtain licensing from BMI at the moment. If you have a specific DMCA request -- please do not hesitate to contact me via the contact button on top. I will do my very best to keep this site fully legal.

Get our toolbar!

 

Superman 33 1/3 rpm vinyl record Peter Pan Records 1978
$6.0
Superman 33 1/3 rpm vinyl record Peter Pan Records 1978 picture


Vintage Vinyl LP Walt Disney’s Mickey Mouse Club Record 1362 Mousekedances 1975
$10.0
Vintage Vinyl LP Walt Disney’s Mickey Mouse Club Record 1362 Mousekedances 1975 picture


Train Sounds "Accent On Steam Vol. 1" - LP (Vinyl) Arkay AR-1052) w/ Orig Insert
$14.99
Train Sounds


1967 Walt Disney's happiest Song Vinyl Record
$12.0
1967 Walt Disney's happiest Song Vinyl Record picture


VTG BROWN VINYL CASSETTE TAPE 45 RECORD ? TRAVEL CARRY CARRYING CASE STORAGE BOX
$9.95
VTG BROWN VINYL CASSETTE TAPE 45 RECORD ? TRAVEL CARRY CARRYING CASE STORAGE BOX picture