Your One-Stop Source For
Music Lyrics
Bass and Guitar Tabs
and More...
>Music Lyrics Bass and Guitar Tabs

 

The Tabs Are Below

Learn To Read Tab
Chords Handbook
Corrections & Additions
Get Official Tab
Sugar Ray tabs @ 911Tabs

Speed Home California- Sugar Ray

CD: Floored

Tabber: Mitchell (Mitchell_J@hotmail.com)

Tuning: Standard

 

Mark says something in Spanish... I don't know the translation :o/

Speed Home California is REALLY fast- it's kinda hard to play at times.

 

YOU GOTTA GO "HUMAN METRONOME" ON THIS INTRO!

e ---------------------------------------------------------------

B -Do this a whole lotta times-----------------------------------

G ---------------------------------------------------------------

D -6-6-6-6-6-6-6-6--5h6-6-6-6-6-6-6-6--5h6-6-6-6-6-6-6-6...--/9--

A ---------------------------------------------------------------

E ---------------------------------------------------------------

 

Main riff of the song:

e -----------------------------------------------------

B -----------------------------------------------------

G -----------------------------------------------------

D -6-6-x-x-x-x--6-6-x-x-x-x--4-4-x-x-x-x--4-4-x-x-x-x--

A -6-6-x-x-x-x--6-6-x-x-x-x--4-4-x-x-x-x--4-4-x-x-x-x--

E -4-4-x-x-x-x--4-4-x-x-x-x--2-2-x-x-x-x--2-2-x-x-x-x--

 

e --------------------------------------------------

B --------------------------------------------------

G -6-6-x-x-x-x--6-6-x-x-x-x-------------------------

D -6-6-x-x-x-x--6-6-x-x-x-x-------------------------

A -4-4-x-x-x-x--4-4-x-x-x-x----2-----------2--------

E --------------------------4-----4--2--4-----4--2--

 

Chorus:

e ----------------------------------------------------------------

B ----------------------------------------------------------------

G -----------------------------6-6--------------------6-6---------

D -(palm mute)-------6-6--4-4--6-6--6-6-6---6-6--4-4--6-6--6-6-6--

A ---2-------2-------6-6--4-4--4-4--6-6-6---6-6--4-4--4-4--6-6-6--

E -4---4-2-4---4-2---4-4--2-2-------4-4-4---4-4--2-2-------4-4-4--

 

Solo:

e -------------------------------11-11-11-11-11--16-16-16-16-16-16-16-16-----

B -----------7-7-7-7-7-9-9-9-9-9-----------------------------------------12--

G -8-8-8-8-8-----------------------------------------------------------------

D ---------------------------------------------------------------------------

A ---------------------------------------------------------------------------

E ---------------------------------------------------------------------------

 

e -12-11----12-11-------------------------------------10p9h10p9h10-----

B -------12-------12-----------------------------------------------12--

G -------------------------------------------------4-------------------

D -------------------------------------6p5h6-6p5h6---------------------

A ----------------------2-------2--------------------------------------

E --------------------4---4-2-4---4-2----------------------------------

 

e -10-10-10-10-10-----------------|------------5-------------^-----

B -^^-^^-^^-^^-^^-----------------|----------5---------5--7--6--V--

G --------------------------------|--------7---------7----------8--

D --------------------------------|------5---------5---------------

A ------------------2-------2-----|--------------------------------

E ----------------4---4-2-4---4-2-|--------------------------------

 

Chords: F#5: 244xxx G#5: 466xxx C#5: x466xx

 

 

Return to my to my Sugar Ray tabs page

The Tablature is Copyright its respective owners.

Sign Up For My Newsletter
Subscribe | Unsubscribe

Site Map | Disclaimer | Privacy Policy | Media Kit | Submissions/Corrections

Website © 2000-2014 mattsmusicpage.com. All rights reserved.

Legal & DMCA: Matt's Music Page has been providing lyrics and tabs in a legal way, paying royalties each year to a few organizations. Then, all lyrics and tabs were removed from the site. Now, there's a new owner to the site, which purchased it August 26, 2014, and he is in negotiation to obtain licensing from BMI at the moment. If you have a specific DMCA request -- please do not hesitate to contact me via the contact button on top. I will do my very best to keep this site fully legal.

Get our toolbar!

 

BRAND NEW KEY OF C HOHNER MINI HARMONICA HARP KEYRING KEYCHAIN KEY RING CHAIN
$8.21
BRAND NEW KEY OF C HOHNER MINI HARMONICA HARP KEYRING KEYCHAIN KEY RING CHAIN picture


RISING SONS BAND *2X3 FRIDGE MAGNET* VOCALS GUITAR MANDOLIN DOBRO HARMONICA SONG
$3.99
RISING SONS BAND *2X3 FRIDGE MAGNET* VOCALS GUITAR MANDOLIN DOBRO HARMONICA SONG picture


Vtg Christmas Angel Baby Girl W Harmonica Boy W Book SET OF 2 W GOLD WINGS
$125.0
Vtg Christmas Angel Baby Girl W Harmonica Boy W Book SET OF 2 W GOLD WINGS  picture


Beautiful Hand Carved Jewelry Trinket Jewelry Box Harmonica Case Bone And Brass
$14.5
Beautiful Hand Carved Jewelry Trinket Jewelry Box Harmonica Case Bone And Brass picture


BRAND NEW* HOHNER BOB DYLAN SIGNATURE LIMITED EDITION HARMONICA COLLECTORS ITEM
$140.19
BRAND NEW* HOHNER BOB DYLAN SIGNATURE LIMITED EDITION HARMONICA COLLECTORS ITEM picture