Your One-Stop Source For
Music Lyrics
Bass and Guitar Tabs
and More...
Music Lyrics Bass and Guitar Tabs

 

The Tabs Are Below

Learn To Read Tab
Chords Handbook
Corrections & Additions
Get Official Tab
Sugar Ray tabs @ 911Tabs

Artist: Sugar Ray

Song: Sorry Now

Album: Sugar Ray

 

Tabbed by GetUpKid169

 

Intro: guitar 1

 

D# C A# G#

 

e |----------------------------------------------------|

b |----------------------------------------------------|

g |--888-55------------888-55--------------------------|

d |--888-55---888-66---888-55---888-66-----------------|

a |--666-33---888-66---666-33---888-66-----------------|

E |-----------666-44------------666-44-----------------|

 

Guitar 2

 

e |----------11-8-8-11-9-9-9-8-----------11-8-8-11-9-9-|

b |-----/8-8-------------------11-9--8-8---------------|

g |----------------------------------------------------|

d |----------------------------------------------------|

a |----------------------------------------------------|

E |----------------------------------------------------|

 

e |--9-8-9---------------------------------------------|

b |----------------------------------------------------|

g |----------------------------------------------------|

d |----------------------------------------------------|

a |----------------------------------------------------|

E |----------------------------------------------------|

 

Verse (no guitar)

 

I let you go, let you go

Like a dozen balloons

Without even thinking

I didn’t know, now I know

It was much too soon

It was much too soon

 

Pre-chorus

 

G# A# C A#

 

e |----------------------------------------------------|

b |----------------------------------------------------|

g |------------------5555555---------------------------|

d |--6666666-8888888-5555555-8888888-------------------|

a |--6666666-8888888-3333333-8888888-------------------|

E |--4444444-6666666---------6666666-------------------|

 

Why can’t you call and say you miss me?

The time we wasted just becomes history

 

G# A# C C#

 

e |----------------------------------------------------|

b |----------------------------------------------------|

g |------------------5555555-6666666-------------------|

d |--6666666-8888888-5555555-6666666-------------------|

a |--6666666-8888888-3333333-4444444-------------------|

E |--4444444-6666666-----------------------------------|

 

Why can’t you call and say you need me?

The words I wanna hear deceive me

 

Chorus

 

D# G# C# G#

 

e |----------------------------------------------------|

b |----------------------------------------------------|

g |--88888---------66666-------------------------------|

d |--88888--66666--66666--66666------------------------|

a |--66666--66666--44444--66666------------------------|

E |---------44444---------44444------------------------|

 

Who’s sorry now

Who’s sorry now

Who’s sorry

I know you’re right

You’re always right

So turn out the light

Who’s sorry

 

Repeat Intro

 

Verse 2 (no guitar)

 

We’ll never know, never know

If all we had wasn’t true

With me and you

Never really knew if right now

Was much too soon

It was much too soon

 

Pre-chorus

 

Why can’t you call and say you miss me?

The time we wasted just becomes history

Why can’t you call and say you need me?

The words you wanna hear deceive me

 

Chorus

 

Who’s sorry now

Who’s sorry now

Who’s sorry

I know you’re right

You’re always right

So turn out the light

 

Bridge

 

C# C A# G#

 

e |----------------------------------------------------|

b |----------------------------------------------------|

g |--66666--55555--------------------------------------|

d |--66666--55555--88888--66666------------------------|

a |--44444--33333--88888--66666------------------------|

E |----------------66666--44444------------------------|

 

I wish she could tell me now

Where she has been

Where have you been?

Now that she’s let me out

I only want back in

Why can’t you call and say you miss me?

The time we wasted just becomes history

Why can’t you call and say you miss me?

The words you wanna hear deceive me

 

Chorus

 

Who’s sorry now

Who’s sorry now

Who’s sorry

I know you’re right

You’re always right

So turn out the light

Who’s sorry now

 

Solo

 

e |---------11—9b-11-9b-11-9b-9b---11-9b-11-9b-11-9b---|

b |------8-----------------------8---------------------|

g |----------------------------------------------------|

d |----------------------------------------------------|

a |----------------------------------------------------|

E |----------------------------------------------------|

 

e |---9b-9b---11-9b-11-9b-11-9b-9b-9b------------------|

b |---------8-------------------------11-9-------------|

g |----------------------------------------------------|

d |----------------------------------------------------|

a |----------------------------------------------------|

E |----------------------------------------------------|

 

 

Return to my to my Sugar Ray tabs page

The Tablature is Copyright its respective owners.

Sign Up For My Newsletter
Subscribe | Unsubscribe

Site Map | Disclaimer | Privacy Policy | Media Kit | Submissions/Corrections

Website © 2000-2014 mattsmusicpage.com. All rights reserved.

Legal & DMCA: Matt's Music Page has been providing lyrics and tabs in a legal way, paying royalties each year to a few organizations. Then, all lyrics and tabs were removed from the site. Now, there's a new owner to the site, which purchased it August 26, 2014, and he is in negotiation to obtain licensing from BMI at the moment. If you have a specific DMCA request -- please do not hesitate to contact me via the contact button on top. I will do my very best to keep this site fully legal.

Get our toolbar!