Your One-Stop Source For
Music Lyrics
Bass and Guitar Tabs
and More...
Music Lyrics Bass and Guitar Tabs

 

The Tabs Are Below

Learn To Read Tab
Chords Handbook
Corrections & Additions
Get Official Tab
Sugar Ray tabs @ 911Tabs

"Someday" by Sugar Ray

 

Note: this isnt exactly how it goes. but it sounds good and it is

easier for beginners to play! s=slur

 

intro

 

e-------------------2-0-------------------------------------------

b--0----0-----0----2----s4-5-4-2----------------------------------

g---1----1--------2-----------------------------------------------

d----2----2------4------------------------------------------------

a-----------------------------------------------------------------

e-----------------------------------------------------------------

 

repeat a few times then:

someday.. when..

e-----------------------------------------------------------------

b-----------------------------------------------------------------

g-----------------------------------------------------------------

d---2-2-1-----2-2-1-----------------------------------------------

a---4-4-2-----4-4-2-----------------------------------------------

e-0---------2-----------------------------------------------------

repeat few times

one way in.. passerby.. just take this out we'll

e-------------------------------------0----4----0---4----0--------

b-4-4-4-4------5-4-4-4-4-2--(rpt)-----0----4----0---4----0--------

g-4-4-4-4------6-4-4-4-4-2------------2----4----2---4----0--------

d-----------------------------------------------------------------

a-----------------------------------------------------------------

e-----------------------------------------------------------------

 

deep I reach me...

e----4--2---4----2-2------7-7-------------------------------------

b----4--2---4----4-4--or--7-7-------------------------------------

g----4--2---4----4-4------8-8-------------------------------------

d-----------------------------------------------------------------

a-----------------------------------------------------------------

e-----------------------------------------------------------------

then after that go back up to someday... and there ya go! email me

at Ioved gyrl@aol.com. thanks!

 

Return to my to my Sugar Ray tabs page

The Tablature is Copyright its respective owners.

Sign Up For My Newsletter
Subscribe | Unsubscribe

Site Map | Disclaimer | Privacy Policy | Media Kit | Submissions/Corrections

Website © 2000-2014 mattsmusicpage.com. All rights reserved.

Legal & DMCA: Matt's Music Page has been providing lyrics and tabs in a legal way, paying royalties each year to a few organizations. Then, all lyrics and tabs were removed from the site. Now, there's a new owner to the site, which purchased it August 26, 2014, and he is in negotiation to obtain licensing from BMI at the moment. If you have a specific DMCA request -- please do not hesitate to contact me via the contact button on top. I will do my very best to keep this site fully legal.

Get our toolbar!

 

BRAND NEW KEY OF C HOHNER MINI HARMONICA HARP KEYRING KEYCHAIN KEY RING CHAIN
$8.21
BRAND NEW KEY OF C HOHNER MINI HARMONICA HARP KEYRING KEYCHAIN KEY RING CHAIN picture


RISING SONS BAND *2X3 FRIDGE MAGNET* VOCALS GUITAR MANDOLIN DOBRO HARMONICA SONG
$3.99
RISING SONS BAND *2X3 FRIDGE MAGNET* VOCALS GUITAR MANDOLIN DOBRO HARMONICA SONG picture


Vtg Christmas Angel Baby Girl W Harmonica Boy W Book SET OF 2 W GOLD WINGS
$125.0
Vtg Christmas Angel Baby Girl W Harmonica Boy W Book SET OF 2 W GOLD WINGS  picture


Beautiful Hand Carved Jewelry Trinket Jewelry Box Harmonica Case Bone And Brass
$14.5
Beautiful Hand Carved Jewelry Trinket Jewelry Box Harmonica Case Bone And Brass picture


BRAND NEW* HOHNER BOB DYLAN SIGNATURE LIMITED EDITION HARMONICA COLLECTORS ITEM
$140.19
BRAND NEW* HOHNER BOB DYLAN SIGNATURE LIMITED EDITION HARMONICA COLLECTORS ITEM picture