Your One-Stop Source For
Music Lyrics
Bass and Guitar Tabs
and More...
Music Lyrics Bass and Guitar Tabs

 

The Tabs Are Below

Learn To Read Tab
Chords Handbook
Corrections & Additions
Get Official Tab
Sugar Ray tabs @ 911Tabs

Band:Sugar Ray

Song:Words To Me

Album:Scooby Doo OST

 

Tabbed by Kyle Gayne

 

Intro(bass enters at 0:05)

G:--------------------------------|

D:--------------------------------|

A:----------------6-66-6----4b----|x3

E:-4--44-4--5-7-8-----------------|

 

G:--------------------------------|

D:--------------------------------|

A:----------------6-66-6----------|x1

E:-4--44-4--5-7-8-----------------|

 

Verse

G:----------------| |----------------------------------------------------| |

D:----------------| |----------------------------------------------------| |

A:----------------|x3|-4--44-4--4-4-3-1--11-1--1-1-1/13---13---13---13----|x1|x2

E:-4--44-4--4-4-4-| |----------------------------------------------------| |

 

Pre Chorus

G:----------------------------------|

D:----------------------------------|

A:-4~~-----3~~-----1~~~-------------|x2

E:----------------------------------|

 

Chorus

G:--------------------------------| |------------------|

D:--------------------------------| |------------------|

A:----------------6-66-6----4b----|x4|------------------|x1

E:-4--44-4--5-7-8-----------------| |------------------|

 

Verse

 

Pre Chorus

 

Chorus

G:--------------------------------| |--------------------------------|

D:--------------------------------| |--------------------------------|

A:----------------6-66-6----4b----|x3|----------------6---------4b----|x1

E:-4--44-4--5-7-8-----------------| |-4--44-4--5-7-8-----------------|

 

Solo/Bridge

G:--------------------------------| |--------------------------------|

D:--------------------------------| |--------------------------------|

A:----------------6-66-6----------|x1|----------------6--66-6---4b----|x1

E:-4--44-4--5-7-8-----------------| |-4--44-4--5-7-8-----------------|

 

G:--------------------------------| |--------------------------------|

D:--------------------------------| |----------------8~~~------------|

A:----------------6-66-6----------|x1|--------------------------------|x1

E:-4--44-4--5-7-8-----------------| |-4--44-4--5-7-8-----------------|

 

Pre Chorus

G:----------------------------------|

D:----------------------------------|

A:-4~~-----3~~-----1~~~-------------|x2

E:----------------------------------|

 

G:----------------------------------|

D:----------------------------------|

A:-4~~-----3~~----------------------|x1

E:----------------------------------|

 

Chorus/Outro

G:--------------------------------| |--------------------------------| |Repeat|

D:--------------------------------| |--------------------------------| |until |

A:----------------6-66-6----------|x1|----------------6--66-6---4b----|x1|fade |

E:-4--44-4--5-7-8-----------------| |-4--44-4--5-7-8-----------------| |out |

 

 

Return to my to my Sugar Ray bass tabs page

The Tablature is Copyright its respective owners.

Sign Up For My Newsletter
Subscribe | Unsubscribe

Site Map | Disclaimer | Privacy Policy | Media Kit | Submissions/Corrections

Website © 2000-2014 mattsmusicpage.com. All rights reserved.

Legal & DMCA: Matt's Music Page has been providing lyrics and tabs in a legal way, paying royalties each year to a few organizations. Then, all lyrics and tabs were removed from the site. Now, there's a new owner to the site, which purchased it August 26, 2014, and he is in negotiation to obtain licensing from BMI at the moment. If you have a specific DMCA request -- please do not hesitate to contact me via the contact button on top. I will do my very best to keep this site fully legal.

Get our toolbar!

 

Hard Rock Pin Las Vegas 4th of july red white and blue guitar
$5.0
Hard Rock Pin Las Vegas 4th of july red white and blue guitar picture


Hard Rock Pin Hollywood Fl Bell Girl with dice luggage and guitar
$5.0
Hard Rock Pin Hollywood Fl Bell Girl with dice luggage and guitar picture


Hard Rock Pin Las Vegas King of Clubs Guitar rare only 3 lines of info on back
$5.0
Hard Rock Pin Las Vegas King of Clubs Guitar rare only 3 lines of info on back picture


Hard Rock Pin Edmonton guitar pin
$5.0
Hard Rock Pin Edmonton guitar pin picture


Lladro Guitar Boy #4614 - Beautiful Piece of Lladro
$109.0
Lladro Guitar Boy #4614 - Beautiful Piece of Lladro picture