Your One-Stop Source For
Music Lyrics
Bass and Guitar Tabs
and More...
>Music Lyrics Bass and Guitar Tabs

 

The Tabs Are Below

Learn To Read Tab
Chords Handbook
Corrections & Additions
Get Official Tab
Sugar Ray tabs @ 911Tabs

Standard Tuning (E;A;D;G)

 

Intro:

Pt1 Pt2

|----| |---------------------------|

|----| |---------------------------|

|----|(x1)|---------------------------|(x2)

|-00-| |-44-44--44-44--55-55-00-00-|

 

Verse:

|----------------------------|

|----------------------------|

|----------------------------|(x4)

|-44-44--44-44--55-55--00-00-|

 

Chorus:

|-------------------------|

|-------------------------| ***( ~ means let note ring )***

|-------------------------|

|-4~----5~----0~----0~----|

 

Pause for a second or two then play

|-------------|

|-------------|

|-------------|

|-44-44-44-44-|

 

Verse:

|----------------------------|

|----------------------------|

|----------------------------|(x3)

|-44-44--44-44--55-55--00-00-|

 

Chorus:

|-------------------------|

|-------------------------|

|-------------------------|

|-4~----5~----0~----0~----|

 

Interlude:

|-----------------------------------------------------------|

|-----------------------------------------------------------|

|-----------------------------------------------------------|

|-00-00-00-Drums-00-00-00-Drums-00-00-00-44-44--44-44-5~----|

 

|-------------------------|

|-------------------------|

|-------------------------|

|-0~----2~----4~----55----|

 

Chorus again

 

Outro:

|---------------------|

|---------------------|

|---------------------|

|-4444-5555-00000000--|

 

 

The verse of this song sounds a bit gay, but the Chorus is very cool

 

 

Return to my to my Sugar Ray bass tabs page

The Tablature is Copyright its respective owners.

Sign Up For My Newsletter
Subscribe | Unsubscribe

Site Map | Disclaimer | Privacy Policy | Media Kit | Submissions/Corrections

Website © 2000-2014 mattsmusicpage.com. All rights reserved.

Legal & DMCA: Matt's Music Page has been providing lyrics and tabs in a legal way, paying royalties each year to a few organizations. Then, all lyrics and tabs were removed from the site. Now, there's a new owner to the site, which purchased it August 26, 2014, and he is in negotiation to obtain licensing from BMI at the moment. If you have a specific DMCA request -- please do not hesitate to contact me via the contact button on top. I will do my very best to keep this site fully legal.

Get our toolbar!

 


Antique CHELSEA 'Willard Banjo' Time & Strike' Banjo Wall Clock Large
$
Antique CHELSEA 'Willard Banjo' Time & Strike' Banjo Wall Clock Large picture


Air Ministry T.E BLADON & SONS - Brass Banjo Oil Can - 1935 Vintage Oil Pourer
$
Air Ministry T.E BLADON & SONS - Brass Banjo Oil Can - 1935 Vintage Oil Pourer picture


Vintage Clock Face Dial Brass Glass Cover From Old Banjo Style 7 in & Hardware
$
Vintage Clock Face Dial Brass Glass Cover From Old Banjo Style 7 in & Hardware picture


Howard Miller Banjo Style Weather Station Catalina 612-718
$
Howard Miller Banjo Style Weather Station Catalina 612-718 picture


­čö┤UNSMOKED S. YANIK MEERSCHAUM PIPE FEATURING NUDE WOMAN PLAYING a BANJO MOON
$
­čö┤UNSMOKED S. YANIK MEERSCHAUM PIPE FEATURING NUDE WOMAN PLAYING a BANJO MOON picture


Gemmy Dueling Banjo Santa & Reindeer Plush Animated Christmas Music Song
$
Gemmy Dueling Banjo Santa & Reindeer Plush Animated Christmas Music Song picture


Kilbourn & Proctor Banjo Clock Style Movement being sold for Parts or Repair
$
Kilbourn & Proctor Banjo Clock Style Movement being sold for Parts or Repair picture


Vintage Clock Face Dial Double Sided Arabic Arabesque From Old Banjo Style 7 in
$
Vintage Clock Face Dial Double Sided Arabic Arabesque From Old Banjo Style 7 in picture


Vintage Draft Brewed Blatz Banjo Man-Metal/Glass/Ceramic 17" Tall-Exc. Condition
$
Vintage Draft Brewed Blatz Banjo Man-Metal/Glass/Ceramic 17


Harmony Roy Smeck banjo instrument vintage
$
Harmony Roy Smeck banjo instrument vintage picture