Your One-Stop Source For
Music Lyrics
Bass and Guitar Tabs
and More...
Music Lyrics Bass and Guitar Tabs

 

The Tabs Are Below

Learn To Read Tab
Chords Handbook
Corrections & Additions
Get Official Tab
Sugar Ray tabs @ 911Tabs

Sugar Ray – Mr.Bartender (It’s So Easy)

Tabbed by: sinniecoyote

 

 

Intro/Chorus Part (X2)

G|----------------------------------------------------|

D|-----7-------------------------3----------2---------|

A|---7-----------3-5-----------3----------------------|

E|-5-------5-4-3-----3---3-2-1-------3-1-0------0-3-4-|

 

Verse 1

G|--------------------------------------4-----------|-------------------------------------------|

D|------------------------------------5---2---------|-------------------------------------------|

A|-------------------------7------------------------|-------------------------------------------|

E|-5--5--5-4-0--0--3-4-5-7---5--5-4-3---------0-3-4-|-5--5--5-3-0--0--3-4-5--5--5-3-0--0--0-3-4-|

 

Chorus 1 (play intro/chorus X2)

 

After Chorus Part

X2

G|----------------------------------------|--------------------------------------------|

D|-----7-----------5------------7---------|---------7----------------7----7------------|

A|---7-----------5------------7-----------|-------7-------7----7----------------7----7-|

E|-5-------5-4-3--------3-4-5-------5-4-3-|-3-4-5-------0---00-----5----5-----0---00---|

 

Verse 2

X2

G|--------------------|----------------------|

D|-----7-----------2--|----------------------|

A|---7-----------2----|--------------5--5----|

E|-5-------5-4-0------|-5-3-1-----3--------3-|

 

Chorus 2

X2

G|---------------------------------------------|---------|

D|-----7-------------------------3----------2--|---------|

A|---7-----------3-5-----------3---------------|---------|

E|-5-------5-4-3-----3---3-2-1-------3-1-0-----|-4b--h5\-|

 

Bridge

X5 X2 X4

G|----------|-------------------------------|-----------------------|

D|---5------|-------------------------------|-----------------------|

A|------5-8-|-------------------------------|-----------------------|

E|-5--------|-5--5--5-4-0--0--3-4-5--5--5-4-|-5--5--5-4-0--0--0-3-4-|

 

Verse 3

X2 X2

G|------------------|-----------------------------------------------------|---------------------|

D|-----7---------2--|-7-77-75--5-5-3-33-52--------------------------------|---------------------|

A|---7---------2----|--------------------------/5----/7----/8----/10-8-10-|---------------------|

E|-5---------0------|------------------------5-----5-----5-----5----------|-5--5--5-4-3--3--3-4-|

 

Chorus 3/Outro

X2 X6

G|---------------------------------------------|-----------------------|

D|-----7-------------------------3----------2--|---------7-----------2-|

A|---7-----------3-5-----------3---------------|-------7-----------2---|

E|-5-------5-4-3-----3---3-2-1-------3-1-0-----|-3-4-5-------5-3-0-----|

(fade out...)

 

 

Return to my to my Sugar Ray bass tabs page

The Tablature is Copyright its respective owners.

Sign Up For My Newsletter
Subscribe | Unsubscribe

Site Map | Disclaimer | Privacy Policy | Media Kit | Submissions/Corrections

Website © 2000-2014 mattsmusicpage.com. All rights reserved.

Legal & DMCA: Matt's Music Page has been providing lyrics and tabs in a legal way, paying royalties each year to a few organizations. Then, all lyrics and tabs were removed from the site. Now, there's a new owner to the site, which purchased it August 26, 2014, and he is in negotiation to obtain licensing from BMI at the moment. If you have a specific DMCA request -- please do not hesitate to contact me via the contact button on top. I will do my very best to keep this site fully legal.

Get our toolbar!