Your One-Stop Source For
Music Lyrics
Bass and Guitar Tabs
and More...
>Music Lyrics Bass and Guitar Tabs

 

The Tabs Are Below

Learn To Read Tab
Chords Handbook
Corrections & Additions
Get Official Tab
Sublime tabs @ 911Tabs

 

 

 

Artist: Sublime

Song: Wrong Way

Tuning: Standard

 

Verse: Repeat 3x Then:

G----------------------------|------------------------------------------

D-----------5-7----------3-5-|-------------5-7---------7-9--------------

A-------7-7----------5-5-----|---------7-7---------9-9------------------

E---5-5----------3-3---------|-----5-5---------7-7----------------------

Chorus

G---------------------|-------------------------------------------------

D---7-7------5-5------|-------------------------------------------------

A-------7-7------5-5--|-------------------------------------------------

E---------------------|-------------------------------------------------

 

There's also some improvising using both of these riffs during the

trumpet solo, so you can do just that: Improvise!

 

 

For Questions Or Comments About Sublime E-Mail Me At Snarl 21@aol.com

 

Return to my to my Sublime tabs page

The Tablature is Copyright its respective owners.

Sign Up For My Newsletter
Subscribe | Unsubscribe

Site Map | Disclaimer | Privacy Policy | Media Kit | Submissions/Corrections

Website © 2000-2014 mattsmusicpage.com. All rights reserved.

Legal & DMCA: Matt's Music Page has been providing lyrics and tabs in a legal way, paying royalties each year to a few organizations. Then, all lyrics and tabs were removed from the site. Now, there's a new owner to the site, which purchased it August 26, 2014, and he is in negotiation to obtain licensing from BMI at the moment. If you have a specific DMCA request -- please do not hesitate to contact me via the contact button on top. I will do my very best to keep this site fully legal.

Get our toolbar!

 

2002 IBANEZ SRX Soundgear Xtreme Electric Bass Guitar JASON FRENCH Vtg Print Ad
$12.99
2002 IBANEZ SRX Soundgear Xtreme Electric Bass Guitar JASON FRENCH Vtg Print Ad picture


2002 YAMAHA Electric Guitars and Bass PAIGE HALEY JASON SLATER more Vtg Print Ad
$12.99
2002 YAMAHA Electric Guitars and Bass PAIGE HALEY JASON SLATER more Vtg Print Ad picture


Cream Jack Bruce Signature Warwick Bass guitar rig Hartke Amp 1990 advertisement
$3.95
Cream Jack Bruce Signature Warwick Bass guitar rig Hartke Amp 1990 advertisement picture


Warwick Custom Shop Thumb SC 5 / 6 string bass guitar ad 8 x 11 advertisement
$3.95
Warwick Custom Shop Thumb SC 5 / 6 string bass guitar ad 8 x 11 advertisement picture


Cream Jack Bruce 1943-2014 Warwick Bass guitar tribute ad 8 x 11 advertisement
$3.95
Cream Jack Bruce 1943-2014 Warwick Bass guitar tribute ad 8 x 11 advertisement picture