Your One-Stop Source For
Music Lyrics
Bass and Guitar Tabs
and More...
>Music Lyrics Bass and Guitar Tabs

 

The Tabs Are Below

Learn To Read Tab
Chords Handbook
Corrections & Additions
Get Official Tab
Sublime tabs @ 911Tabs

 

THIS IS THE TAB FOR "WHAT I GOT" BY SUBLIME

 

I FOUND THIS SONG TO BE JUST A REPEATING D MAJOR FOLLOWED BY A G MAJOR

 

IN OTHER WORDS ITS REALLY SIMPLE SO JUST IMPROVISE WITH THESE 2 CHORDS OVER AND OVER

 

AND IF YOU ARE NOT THAT CREATIVE TRY THIS

 

e --------------2------------------------

B ----3---------3------------------------

G ------2---------2----------------------

D -0-------------------------------------

A ---------------------------------------

E -----------3---------------------------

 

 

NOW THE SOLO IS PRETTY SIMPLE ITS JUST

 

e ------------------------------------------------10-----------------------------------

B ---------6----------7--5------3-----------10-12----12-12-13-12-10--------------------

G -----5-7---7-5------7--5---4---------9-11-------------------------12b-10-12b-10------

D -5-7-----------7-5--7--5--------------------------------------------------------10---

A -------------------------------------------------------------------------------------

E -------------------------------------------------------------------------------------

 

THEN ITS JUST BACK TO D G D G AND SO ON

 

 

THIS IS PRETTY MUCH THE WHOLE SONG DEPENDING ON WHICH VERSION YOU LISTEN TO

THE REPRISE OR THE MTV VERSION. THE REPRISE HAS THE SOLO FOR THE CHORUS SO

JUST WORK WITH IT AND IT WILL SOUND GOOD.

 

Return to my to my Sublime tabs page

The Tablature is Copyright its respective owners.

Sign Up For My Newsletter
Subscribe | Unsubscribe

Site Map | Disclaimer | Privacy Policy | Media Kit | Submissions/Corrections

Website © 2000-2014 mattsmusicpage.com. All rights reserved.

Legal & DMCA: Matt's Music Page has been providing lyrics and tabs in a legal way, paying royalties each year to a few organizations. Then, all lyrics and tabs were removed from the site. Now, there's a new owner to the site, which purchased it August 26, 2014, and he is in negotiation to obtain licensing from BMI at the moment. If you have a specific DMCA request -- please do not hesitate to contact me via the contact button on top. I will do my very best to keep this site fully legal.

Get our toolbar!

 


Vintage Handmade Needlepoint Table Runner Banjo Table Decor Embroidered Linen
$
Vintage Handmade Needlepoint Table Runner Banjo Table Decor Embroidered Linen picture


Antique-American-Mahogany-Weight Banjo Clock Case. Ca.1840-To Restore-#P64
$
Antique-American-Mahogany-Weight Banjo Clock Case. Ca.1840-To Restore-#P64 picture


Antique 1930's Seth Thomas Banjo Clock
$
Antique 1930's  Seth Thomas Banjo Clock picture


Custom-Made Girandole Banjo Clock “1977”
$
Custom-Made Girandole Banjo Clock “1977” picture


Stennis Banjo  Dial - 271
$
Stennis Banjo  Dial - 271 picture


 E Howard #5 Banjo Clock all original 
$
 E Howard #5 Banjo Clock all original  picture


Vintage-Brass-Banjo Clock Eagle Finial-#H302
$
Vintage-Brass-Banjo Clock Eagle Finial-#H302 picture


Retro Banjo Frog on Skull Cigarette Case with lighter ID Holder Wallet
$
Retro Banjo Frog on Skull Cigarette Case with lighter ID Holder Wallet  picture


Gorgeous Vintage NEW HAVEN Banjo Clock "Whitney Mahogany W/ Orig Key. WORKS GRT
$
Gorgeous Vintage NEW HAVEN Banjo Clock


Vintage Elgin Weather Station Banjo Style Temp Humidity Barometer 21" X 6" Wood
$
Vintage Elgin Weather Station Banjo Style Temp Humidity Barometer 21