Your One-Stop Source For
Music Lyrics
Bass and Guitar Tabs
and More...
Music Lyrics Bass and Guitar Tabs

 

The Tabs Are Below

Learn To Read Tab
Chords Handbook
Corrections & Additions
Get Official Tab
Sublime tabs @ 911Tabs

 

Under my Voodoo

Sublime

 

intro and first verse:

|-----------------------------------------------------------------|

|-----9--11/13\11--9----------------------------------------------|

|--11----------------11--9--7--9/11\9--7--------------------------|

|-----------------------------------------7/9--9--7--7/9--7/9--7--|

|-----------------------------------------------------------------|

|-----------------------------------------------------------------|

 

|-----------------------------------------------------------------|

|-------------------10/12\10--8--------------8--------------------|

|---------7/9--7~----------------9--9--7--9-----9--7--9--9/11\9---|

|--7/9--9---------------------------------------------------------|

|-----------------------------------------------------------------|

|-----------------------------------------------------------------|

 

|-----------------------------------------------------------------|

|---------------------8------------8-10-11-10-8---8-10-8-10-10/12-|

|--7---7--9~-7--9--7-----9-9--7--9--------------9-----------------|

|----9------------------------------------------------------------|

|-----------------------------------------------------------------|

|-----------------------------------------------------------------|

 

|-----------------------------------------------------------------|

|--12-12\------------------------------------8--------------------|

|---------------7--9--------------------7--9---9-9-9-7-9-7-9/11\9-|

|-----------7/9------------7--5-5--7--9---------------------------|

|---------------------7--9----------------------------------------|

|-----------------------------------------------------------------|

 

|-----------------------------------------------------------------|

|-----------8/10\8---------------8b-------8b-8------8b-8b-8b------|

|--7---7-9---------9-7-9-----7-9----9-7-9------7-9----------------|

|----9------------------------------------------------------------|

|-------------------------10--------------------------------------|

|-----------------------------------------------------------------|

 

chorus: second verse:

|-----------------------------------------------------------------|

|-----------------------------------------------------8-----------|

|--12-11-10-9----12-14-16-9~--9-7---7-9--------9-7-9----9-9~------|

|--12-11-10-9----12-14-16-9~------9-----7-5-----------------------|

|--10--9--8-7----10-12-14-7~----------------7~--------------------|

|-----------------------------------------------------------------|

 

|-----------------------------------------------------------------|

|--------------------------8---10-8------8------------8-----------|

|--9-7-9-7-------7-9-7-9-7---9-------9-9---9--9-7-9-7---9-----7---|

|----------9-7-9------------------------------------------7-9-----|

|-----------------------------------------------------------------|

|-----------------------------------------------------------------|

 

|-----------------------------------------------------------------|

|--10/12\10--8-----8-8---8-8---8-8---8---8-------8~---8---8----8~-|

|--------------9-7-----7-----7-----9---9---9-7-9----9---9---9~----|

|-----------------------------------------------------------------|

|-----------------------------------------------------------------|

|-----------------------------------------------------------------|

 

chorus: guitar solo:

|----------------------------------15b--15b--15-------------------|

|--8~-------------------------------------------17\15--17\15--17--|

|-------12-11-10-9----12-14-16-9~---------------------------------|

|-------12-11-10-9----12-14-16-9~---------------------------------|

|-------10--9--8-7----10-12-14-7~---------------------------------|

|-----------------------------------------------------------------|

 

|-----------------------------------------------------------------|

|--15-17----15----------------------------------------------------|

|--------16----14-16-12--14\12-----------12----12-12--------12-12-|

|------------------------------14--12/14----14-------12-14-----12-|

|-----------------------------------------------------------------|

|-----------------------------------------------------------------|

 

|-----------------------------------------------------------------|

|-----------------------------------------------------------------|

|--12----12-12-12~--16b-16-14-------16b-16-16-16-14-14------------|

|-----14----------------------16-12--------------------16-16-12---|

|-----------------------------------------------------------------|

|-----------------------------------------------------------------|

 

|--15b-12-15b-12-15b-12-15b-12-15b-15b-15b-15b-12~----------------|

|-----------------------------------------------------------------|

|-----------------------------------------------------------------|

|-----------------------------------------------------------------|

|-----------------------------------------------------------------|

|-----------------------------------------------------------------|

 

chorus: repeat until end of song:

|-------------------------------------------------------|

|--------------------------------8-X-X-8-X-8-8-X-8------|

|--12-11-10-9----12-14-16-9------9-X-X-9-X-9-9-X-9------|

|--12-11-10-9----12-14-16-9------9-X-X-9-X-9-9-X-9------|

|--10--9--8-7----10-12-14-7------7-X-X-7-X-7-7-X-7------|

|-------------------------------------------------------|

 

Return to my to my Sublime tabs page

The Tablature is Copyright its respective owners.

Sign Up For My Newsletter
Subscribe | Unsubscribe

Site Map | Disclaimer | Privacy Policy | Media Kit | Submissions/Corrections

Website © 2000-2014 mattsmusicpage.com. All rights reserved.

Legal & DMCA: Matt's Music Page has been providing lyrics and tabs in a legal way, paying royalties each year to a few organizations. Then, all lyrics and tabs were removed from the site. Now, there's a new owner to the site, which purchased it August 26, 2014, and he is in negotiation to obtain licensing from BMI at the moment. If you have a specific DMCA request -- please do not hesitate to contact me via the contact button on top. I will do my very best to keep this site fully legal.

Get our toolbar!

 

1939 LYRIC THEATRE New York PHOTO
$5.83
1939 LYRIC THEATRE New York PHOTO picture


Star Spangled Banner or Marines Hymn lyrics signed by WWII Charles W. Lindberg
$10.0
Star Spangled Banner or Marines Hymn lyrics signed by WWII Charles W. Lindberg picture


OLD LARGE HISTORIC PHOTO OF THE LYRIC THEATRE, SYDNEY c1930s, WAR BONDS BOOTH
$7.42
OLD LARGE HISTORIC PHOTO OF THE LYRIC THEATRE, SYDNEY c1930s, WAR BONDS BOOTH picture


SONG OF REVOLUTION CARD SET WITH 13 MOST FAVORED COMMUNIST SONGS LYRICS + NOTES
$24.99
SONG OF REVOLUTION CARD SET WITH 13 MOST FAVORED COMMUNIST SONGS LYRICS + NOTES picture


OLD LARGE HISTORIC PHOTO OF THE LYRIC THEATRE, SYDNEY c1930s, WAR LOANS BOOTH
$7.42
OLD LARGE HISTORIC PHOTO OF THE LYRIC THEATRE, SYDNEY c1930s, WAR LOANS BOOTH picture