Your One-Stop Source For
Music Lyrics
Bass and Guitar Tabs
and More...
Music Lyrics Bass and Guitar Tabs

 

The Tabs Are Below

Learn To Read Tab
Chords Handbook
Corrections & Additions
Get Official Tab
Sublime tabs @ 911Tabs

 

Song Title: Santeria

Artist: Sublime

Tabulated By: Rob Ivey

intro:

--------------------------------------------------------

---------------------------4------------------5---------

-------9---------9-----------5----------6-4-----4-6-----

-----9---9------9-9------------6-------6----6-----------

---7-------7--7-----7----6---------4-4------------------

-----------------------4---------4----------------------

 

verse:

------------------------------------------------4----4--

------7-------------------9-----9----9----9-----4----4--

--------8-----------------9-----9----9----9-----5----5--

----------9---------------9-----9----9----9-----6----6--

-7-6----------------------7-----7----7----7-----6----6--

------------7-----------------------------------4----4--

 

 

-4-----4-----4---4---4---4---7----7----7----7-----------

-4-----4-----5---5---5---5---7----7----7----7-----------

-5-----5-----6---6---6---6---6----6----6----6-----------

-6-----6-----6---6---6---6---9----9----9----9-----------

-6-----6-----4---4---4---4---9----9----9----9-----------

-4-----4---------------------7----7----7----7-----------

repeat once per verse

chorus:

--5-------7-----------------4---------------------------

----5-------7-----9----7----5---------------------------

------6-------8-------------6---------------------------

----------------------------6---------------------------

----------------7----6----4-4---------------------------

--------------------------------------------------------

repeat 4x forchorus

makeshift solo:

--------------------------------------------------------

--------------------------------------------------------

-----------6-9-11(bend)-11--9-8--8-6-9-8---6--6-4-4-----

------6--9---------------------------------------6-6-4--

-7--9---------------------------------------------------

--------------------------------------------------------

 

--------------------------------------------------------

---------------------------12(bend)-9-12-9--------------

-------------------------------------------11-9---------

6--6-4-6-4--------------------------------------11------

-----------7--7-7-7-6-4---------------------------------

------------------------7-------------------------------

 

 

-----------------------9--------------------------------

--------------------------------------------------------

-------------------------11-10--------------------------

---10----10---12(bend)---------(repeat 2 times)---------

11----11------------------------------------------------

--------------------------------------------------------

the rest is verse and chorus over and over

end:

--------------------------------------------------------

----7--5--4--5--4---9-----------------------------------

-9--8--6--4--6--4---7-----------------------------------

-9--8--6--4--7--4---9-----------------------------------

-7--6--4--2--7--2---7-----------------------------------

-------------5------------------------------------------

 

 

Return to my to my Sublime tabs page

The Tablature is Copyright its respective owners.

Sign Up For My Newsletter
Subscribe | Unsubscribe

Site Map | Disclaimer | Privacy Policy | Media Kit | Submissions/Corrections

Website © 2000-2014 mattsmusicpage.com. All rights reserved.

Legal & DMCA: Matt's Music Page has been providing lyrics and tabs in a legal way, paying royalties each year to a few organizations. Then, all lyrics and tabs were removed from the site. Now, there's a new owner to the site, which purchased it August 26, 2014, and he is in negotiation to obtain licensing from BMI at the moment. If you have a specific DMCA request -- please do not hesitate to contact me via the contact button on top. I will do my very best to keep this site fully legal.

Get our toolbar!