Your One-Stop Source For
Music Lyrics
Bass and Guitar Tabs
and More...
Music Lyrics Bass and Guitar Tabs

 

The Tabs Are Below

Learn To Read Tab
Chords Handbook
Corrections & Additions
Get Official Tab
Sublime tabs @ 911Tabs

 

Song: I believe it is called "Pawn Shop" cause they say it every 2

seconds. But if I'm wrong it's #9 on their Self-intitled CD.

Band: Sublime

Transcribed: Matt Grandon Matt1581

 

 

This song may be played on different strings then I

have it.

 

 

 

h-hit on

\ or /-slide

p-pull off

~-bend back and forth

 

The Keyboard or accordian or whatever just plays a E then the A chord.

 

The bass on the song is played over and over

in the song.

 

E---10--10--12--12--10--10--12--12--10--10--7--7--|

 

Here's the guitar. It may not all be correct.

4x 1x 4x

e------------------|---------------|--------------------------------|

B------------------|---------------|--------------------------------|

G------------------|---------------|--------------------------------|

D------------------|---------------|--------------------------------|

A--------10--------|-14-12\10-10-12|--14--12\10-10-12-14p12-14p12-14|

E--10h12----12~~~--|---------------|--------------------------------|

\

use vibrato

1x

e--------------------------------------------------------------------------|

B--------------------------------------------------------------------------|

G-------------12------------------12----------------------------------14---|

D-12-12-12-14----14~~-12-12-12-14----14-14-14-14p12-------12-12-12-14----14|

A---------------------------------------------------14-14------------------|

E--------------------------------------------------------------------------|

 

This part I'm not sure if it's exactly right.

 

e---------------------------------------------------15---------------------|

B-12-10\8-8/10/12-12-10\8-8-10-12p10-12-12-15h17-17----17~~-15-15-15-15-17-|

G--------------------------------------------------------------------------|

D--------------------------------------------------------------------------|

A--------------------------------------------------------------------------|

E--------------------------------------------------------------------------|

1x 4x or so

e-15------------------------------------|----------------------------------|

B----17-17-17-15p12---------------------|----------------------------------|

G-------------------14p12---------------|----------------------------------|

D-------------------------14p12---------|-12-12-14-14-12-12-14-14-12-12-9-9|

A-------------------------------14p12---|-12-12-14-14-12-12-14-14-12-12-9-9|

E-------------------------------------12|-10-10-12-12-10-10-12-12-10-10-7-7|

 

 

That's about it. My Name used to be Matt1599 and I posted Sublime's #5 track.

I asked for feedback but I changed my name to Matt1581 So if you could give

me feedback about this one, my last one, or any request you need just send

me some E-mail.

 

 

 

 

Return to my to my Sublime tabs page

The Tablature is Copyright its respective owners.

Sign Up For My Newsletter
Subscribe | Unsubscribe

Site Map | Disclaimer | Privacy Policy | Media Kit | Submissions/Corrections

Website © 2000-2014 mattsmusicpage.com. All rights reserved.

Legal & DMCA: Matt's Music Page has been providing lyrics and tabs in a legal way, paying royalties each year to a few organizations. Then, all lyrics and tabs were removed from the site. Now, there's a new owner to the site, which purchased it August 26, 2014, and he is in negotiation to obtain licensing from BMI at the moment. If you have a specific DMCA request -- please do not hesitate to contact me via the contact button on top. I will do my very best to keep this site fully legal.

Get our toolbar!