Your One-Stop Source For
Music Lyrics
Bass and Guitar Tabs
and More...
Music Lyrics Bass and Guitar Tabs

 

The Tabs Are Below

Learn To Read Tab
Chords Handbook
Corrections & Additions
Get Official Tab
Sublime tabs @ 911Tabs

 

April 29,1992 (miami)

 

[This was created with TabIt for Windows version 1.3]

 

E :---------------------|--------------------|---------------------|

B :---------------------|--------------------|---------------------|

G :---------------------|--------------------|---------------------|

D :---------------------|--------------------|---------------------|

A :4-4---4-2-2------2-4-|4---4---------2-2-2-|4-4---4-2-2------2-4-|

E :----4-------2-h4-----|--4---0-0-0-0-------|----4-------2-h4-----|

int ro

 

E :------------------| ---|----- 3|-------- 3|---|----- 3|-------- 3|

B :------------------| ---|----- ||-------- ||---|----- ||-------- ||

G :------------------|*-7*|--7*-*||--------*||-7*|--7*-*||--------*||

D :------------------|*-7*|--7*-*||-7*--7*-*||-7*|--7*-*||-7*--7*-*||

A :4---4---------2-2-| -5*|--5*- ||-7*--7*- ||-5*|--5*- ||-7*--7*- ||

E :--4---0-0-0-0-----| ---|----- ||-5*--5*- ||---|----- ||-5*--5*- ||

verse

 

E :---|----- 3|-------- 3|---|----- 3|-------- 3|| -----|

B :---|----- ||-------- ||---|----- ||-------- ||| -----|

G :-7*|--7*-*||--------*||-7*|--7*-*||--------*|||*-----|

D :-7*|--7*-*||-7*--7*-*||-7*|--7*-*||-7*--7*-*|||*-----|

A :-5*|--5*- ||-7*--7*- ||-5*|--5*- ||-7*--7*- ||| 4-4-4|

E :---|----- ||-5*--5*- ||---|----- ||-5*--5*- ||| -----|

 

 

E :------------------ 2|---|---------------------|

B :------------------ ||---|---------------------|

G :------------------*||---|---------------------|

D :--2-4---------2-4-*||---|---------------------|

A :4-----4-4-4-4----- ||4-4|--4-2-2------2-4-4---|

E :------------------ ||---|4-------2-h4-------4-|

b ridge r i f f end riff

 

E :-----------------------|----------------|

B :-----------------------|----------------|

G :-----------------------|----------------|

D :----------2-4---------2|-4--------------|

A :4-4-4-4-4-----4-4-4-4--|----------------|

E :-----------------------|----------------|

 

 

Return to my to my Sublime tabs page

The Tablature is Copyright its respective owners.

Sign Up For My Newsletter
Subscribe | Unsubscribe

Site Map | Disclaimer | Privacy Policy | Media Kit | Submissions/Corrections

Website © 2000-2014 mattsmusicpage.com. All rights reserved.

Legal & DMCA: Matt's Music Page has been providing lyrics and tabs in a legal way, paying royalties each year to a few organizations. Then, all lyrics and tabs were removed from the site. Now, there's a new owner to the site, which purchased it August 26, 2014, and he is in negotiation to obtain licensing from BMI at the moment. If you have a specific DMCA request -- please do not hesitate to contact me via the contact button on top. I will do my very best to keep this site fully legal.

Get our toolbar!