Your One-Stop Source For
Music Lyrics
Bass and Guitar Tabs
and More...
Music Lyrics Bass and Guitar Tabs

 

The Tabs Are Below

Learn To Read Tab
Chords Handbook
Corrections & Additions
Get Official Tab
Sublime tabs @ 911Tabs

Artist: Sublime

Song: Live at E’s

Album: 40oz. to Freedom

By: Rory Smith

 

Intro

E|---------------------------------------------------------------3-----------3---------1---------1------

B|---------------------------------------------------------------3-----------3---------1---------1-------

G|---------------------------------------------------------------4-----------4---------2---------2-------

D|-------------0------------------------------------------------5-----------5---------3---------3-------

A|--------------------------------------------------------------------------------------------------------

E|---------------------------------------------------------------------------------------------------------

 

E|-------3--------3--------1--------1--------3-----3----------3-----------1-------1-------1-------3-------3------1------1--

B|-------3--------3--------1--------1--------3-----3----------3-----------1-------1-------1-------3-------3------1------1--

G-------4--------4--------2--------2---------------4----------4-----------2-------2-------2-------4-------4------2-----2--

D|------5--------5--------3--------3---------------5----------5-----------3-------3-------3-------5--------5------3-----3--

A|-------------------------------------------------------------------------------------------------------------------------------

E|--------------------------------------------------------------------------------------------------------------------------------

 

Verse {it plays later in the verse}

E|---/3--------3------------3----------1----------1----------3----------3--------1-----------1----1---5-------------

B|---/3--------3------------3----------1----------1----------3----------3--------1-----------1----1---5-------------

G|---/4--------4------------4----------2----------2----------4----------4--------2-----------2----2---6--------------

D|---/5--------5------------5----------3----------3----------5----------5--------3-----------3----3---7--------------

A|------------------------------------------------------------------------------------------------------------------------

E|------------------------------------------------------------------------------------------------------------------------

 

Bridge (this starts when he sings “Oh she makes my body ache”)

E|------5--------------5---------------------------3-----------5----------5----------------------------3-----------------

B|------5--------------5-----------5--------------3-----------5----------5--------------5-------------3----------------

G|------6--------------6-----------5--------------4-----------6----------6--------------5-------------4----------------

D|------7--------------7-----------5--------------5-----------7----------7--------------5-------------5----------------

A|-------------------------------------------------------------------------------------------------------------------------

E|-------------------------------------------------------------------------------------------------------------------------

 

E|-----5--------------5--------------------------3-------------5----------5-----------------------------3----------------

B|-----5--------------5-----------5--------------3------------5----------5--------------5--------------3----------------

G|-----6--------------6-----------5--------------4------------6----------6--------------5--------------4----------------

D|-----7--------------7-----------5--------------5------------7----------7--------------5--------------5----------------

A|--------------------------------------------------------------------------------------------------------------------------

E|-------------------------------------------------------------------------------------------------------------------------

 

 

 

 

Guitar solo

E|--------------------------------------------------------------------------------------------------------------------------------

B|------3------3-----3----------------------------------------------------------------------------------------------------------

G|------4------4-----4----------5----5---5-----------------4----5---6---7h6---------5h4----------4----4--------------

D|------5------5-----5-----------------------------------5--------------------------5----------------5------------------------

A|-------------------------------------------------------------------------------------------------------------------------------

E|--------------------------------------------------------------------------------------------------------------------------------

 

E|--------------------------------------------------------------------------------------------------------------------------6----

B|---------------------------------------------------------------------------------------------------------------6h8------------

G|--------------------------------------------------------------------------3-----------0---3---0---5---5h7------------------

D|---------------------------------------------------3----------3---3---5------------------------------------------------------

A|--------------2-------2-------2----3----5-------------5---------------------------------------------------------------------

E|--1---3-----------3------3--------------------------------------------------3------------------------------------------------

 

E|--------6---8----------8---6----------6--------------------------------------------------------------------------------------

B|-----8--------------------------8-----------8----8------------6h5-------5----6----5----5----3p0----0---3/0-------------

G|-------------------------------------------------------------------------------------------------------------------------------

D|-------------------------------------------------------------------------------------------------------------------------------

A|-------------------------------------------------------------------------------------------------------------------------------

E|--------------------------------------------------------------------------------------------------------------------------------

 

E|-----------15------17p15---17p15--------------------------------------15-------------------------------------------------

B|---------------------------------------17p15---17---15h17-------------------15----------------15------------------------

G|-----------------------------------------------------------------------------------------17---14----------17p14--------14-

D|-------------------------------------------------------------------------------------------------------------------------------

A|-------------------------------------------------------------------------------------------------------------------------------

E|--------------------------------------------------------------------------------------------------------------------------------

 

E|--------------------------------------------------------------------------------------------------------------------------------

B|---------------------------------------------------------------------------------------------------------------15-----15------

G|-----17----14----14--14--14p12----12----12---------------------------0----14----14----17----17----17-----17-----

D|--------------------------------------14-----14----14---14---14-----------------------------------------------------------

A|-------------------------------------------------------------------------------------------------------------------------------

E|--------------------------------------------------------------------------------------------------------------------------------

 

This is after the part where he says” motivating, innovating, chillin and digested”

 

E|--------------------------------------------------------------------------------------------------------------------------------

B|----------------------------------------------------------------------------------------------1---------------------3----------

G|-----------------------------------------------------------2------------------2--------------2---------------------4---------

D|-----------------------------------------------------------3------------------3--------------3---------------------5---------

A|-------------------------------------------------------------------------------------------------------------------------------

E|-------------------------------------------------------------------------------------------------------------------------------

 

 

E|--------------------------------------------------------------------------------------------------------------------------------

B|---------------3--------------1------------------------------------------3-----------------------------------------1----------

G|---------------4--------------2------------------------------------------4-----------------------------------------2---------

D|---------------5--------------3------------------------------------------5-----------------------------------------3---------

A|---------------------------------------------------------------------------------------------------------------------------3/--

E|--------------------------------------------------------------------------------------------------------------------------------

 

E|--------------------------------------------------------------------------------------------------------------------------------

B|--------------------------------------------------------------------------------------------------------------------------------

G|-------------------------------2-----------------------------------------------------------------------------------0----------

D|-------------5----------------3--------------------------------------3-----------------3---------------3---------------------

A|-------------5-------------------------------------------------------3------------------3---------------3--------------------

E|-------------------------------------------------------------------------------------------------------------------------------

 

E|--------------------------------------------------------------------------------------------------------------------------------

B|--------------------------------------------------------------------------------------------------------------------------------

G|----------------------------4------4-----------------2-------2-----------------------4-------------4-----------------2------

D|-------5---------5---------5------5-----------------3-------3-----------------------5-------------5---------3-------3-----

A|-------5---------5----------------------------x------3-------3-----------------------5-------------5-----------------3-----

E|-------------------------------------------------------------------------------------------------------------------------------

 

 

-----------------------------------------------------------------

 

These TABs sent to TMEK's "Rocking To Sublime" by Smithgrind44@aol.com

 

 

Return to my to my Sublime tabs page

The Tablature is Copyright its respective owners.

Sign Up For My Newsletter
Subscribe | Unsubscribe

Site Map | Disclaimer | Privacy Policy | Media Kit | Submissions/Corrections

Website © 2000-2014 mattsmusicpage.com. All rights reserved.

Legal & DMCA: Matt's Music Page has been providing lyrics and tabs in a legal way, paying royalties each year to a few organizations. Then, all lyrics and tabs were removed from the site. Now, there's a new owner to the site, which purchased it August 26, 2014, and he is in negotiation to obtain licensing from BMI at the moment. If you have a specific DMCA request -- please do not hesitate to contact me via the contact button on top. I will do my very best to keep this site fully legal.

Get our toolbar!