Your One-Stop Source For
Music Lyrics
Bass and Guitar Tabs
and More...
Music Lyrics Bass and Guitar Tabs

 

The Tabs Are Below

Learn To Read Tab
Chords Handbook
Corrections & Additions
Get Official Tab
Sublime tabs @ 911Tabs

Artist: sublime

song: krs one

by :rory smith

 

 

NTRO * * * * * * * * *

1]------------------------------------------------------------------------------

2]-----0----2----0-----2----0-----2-----0-----2---------------------------------

3]-----1----2----1-----2----1-----2-----1-----2----1--2----1--2----1-1-1-1-1-1-1

4]---2---------2----------2-----------2------------2--2----2--2----2-2-2-2-2-2-2

5]-2------0----2---2-0----2---2-0---2-----2-0------2--0----2--0----2-2-2-2-2-2-2

6]------------------------------------------------------------------------------

 

VERSE

1]--------------------------------------------------------------

2]-----0----------0----------0----------0-----------------------

3]-----1----2-----1----2-----1----2-----1----2------------------ REPEAT

4]-2-2----2---2-2----2---2-2----2---2-2----2----2-----5-------5-

5]-2----------2----------2----------2-----------2-2/5---2-2/5---

6]--------------------------------------------------------------

 

During the D.J.'s Solo

1]--------------------------

2]---2-----2----------------

3]---2-----2-----1-----1---- REPEAT

4]-2---2-2---2---2-----2----

5]-------------2---2-2---2--

6]--------------------------

 

OUTRO

 

1]------------------------------------------------

2]-----------------------------0----2-----0----2--

3]-1--x-1-1-x-1-1-x-1-1-x------1----2-----1----2-- REPEAT

4]-2--x-2-2-x-2-2-x-2-2-x----2----------2---------

5]-2--x-2-2-x-2-2-x-2-2-x--2------0---2------0----

6]------------------------------------------------

 

-----------------------------------------------------------------

 

These TABs sent to TMEK's "Rocking To Sublime" by Smithgrind44@aol.com

 

Return to my to my Sublime tabs page

The Tablature is Copyright its respective owners.

Sign Up For My Newsletter
Subscribe | Unsubscribe

Site Map | Disclaimer | Privacy Policy | Media Kit | Submissions/Corrections

Website © 2000-2014 mattsmusicpage.com. All rights reserved.

Legal & DMCA: Matt's Music Page has been providing lyrics and tabs in a legal way, paying royalties each year to a few organizations. Then, all lyrics and tabs were removed from the site. Now, there's a new owner to the site, which purchased it August 26, 2014, and he is in negotiation to obtain licensing from BMI at the moment. If you have a specific DMCA request -- please do not hesitate to contact me via the contact button on top. I will do my very best to keep this site fully legal.

Get our toolbar!

 

® Elvis Presley Figure with Bars & Vinyl Record Stage
$23.99
® Elvis Presley Figure with Bars & Vinyl Record Stage picture


THE LONGINES SYMPHONETTE "SENTIMENTAL JOURNEY" VINTAGE VINYL ALBUM RECORD BOWL
$19.99
 THE LONGINES SYMPHONETTE


African Ghana Medley Vinyl Phono Record Beads (8mm) Ghana
$15.0
African Ghana Medley Vinyl Phono Record Beads (8mm)  Ghana picture


African Yellow Vinyl Phono Record Beads (6mm) Ghana
$12.0
African Yellow Vinyl Phono Record Beads (6mm)  Ghana picture


African Vintage Vinyl Phono Record Beads (7mm - Set of 4) Ghana
$69.0
African Vintage Vinyl Phono Record Beads (7mm - Set of 4)  Ghana picture