Your One-Stop Source For
Music Lyrics
Bass and Guitar Tabs
and More...
>Music Lyrics Bass and Guitar Tabs

 

The Tabs Are Below

Learn To Read Tab
Chords Handbook
Corrections & Additions
Get Official Tab
Sublime tabs @ 911Tabs

 

Doin' Time- sublime

 

[This was created with TabIt for Windows version 1.3]

 

 

E :------10----12----|-------*-- 153-*---*|--3-*-5-*-------|

B :------------------|---------- ||3-*-0-*|--3-*-5-*-------|

G :------------------|----------*||3-*-1-*|--3-*-5-*-------|

D :------------------|----------*||-------|----------------|

A :------------------|---------- ||-------|----------------|

E :------------------|---------- ||-------|----------------|

Yes, t his t ab is very chee sy

 

E :------------------|---------- 15-------|----------------|

B :------------------|---------- ||-------|----------------|

G :------------------|----------*||-------|----------------|

D :------------------|----------*||-------|----------------|

A :------------------|---------- ||-------|----------------|

E :0--0---4-0---0-0--|0--4-0-4-- ||-------|----------------|

 

 

Return to my to my Sublime tabs page

The Tablature is Copyright its respective owners.

Sign Up For My Newsletter
Subscribe | Unsubscribe

Site Map | Disclaimer | Privacy Policy | Media Kit | Submissions/Corrections

Website © 2000-2014 mattsmusicpage.com. All rights reserved.

Legal & DMCA: Matt's Music Page has been providing lyrics and tabs in a legal way, paying royalties each year to a few organizations. Then, all lyrics and tabs were removed from the site. Now, there's a new owner to the site, which purchased it August 26, 2014, and he is in negotiation to obtain licensing from BMI at the moment. If you have a specific DMCA request -- please do not hesitate to contact me via the contact button on top. I will do my very best to keep this site fully legal.

Get our toolbar!

 

1962 VIKING TAPE RECORDER AMPLIFIER SERVICE MANUAL MODELS RP61C RP62C RP62C-3
$14.99
1962 VIKING TAPE RECORDER AMPLIFIER SERVICE MANUAL MODELS RP61C RP62C RP62C-3 picture


5 NEW IN BOX RCA 6BC5 RF AMPLIFIER TUBES / VALVES
$9.95
5 NEW IN BOX  RCA 6BC5 RF AMPLIFIER TUBES / VALVES picture


VINTAGE ANTIQUE OLD STYLE FENDER GUITARS & AMPLIFIERS MUSIC METAL TIN SIGN
$5.5
VINTAGE ANTIQUE OLD STYLE FENDER GUITARS & AMPLIFIERS MUSIC METAL TIN SIGN  picture


(2) CUNNINGHAM 01A/301A GLOBE ENGRAVED BASE TUBES F/ AUDIO AMPLIFIER / RADIO
$22.99
(2) CUNNINGHAM  01A/301A GLOBE ENGRAVED BASE TUBES F/ AUDIO AMPLIFIER / RADIO picture


Vintage WURLITZER Jukebox Amplifier Model 851 & Control Unit 177 Sound System
$89.99
Vintage WURLITZER Jukebox Amplifier Model 851 & Control Unit 177 Sound System picture