Your One-Stop Source For
Music Lyrics
Bass and Guitar Tabs
and More...
Music Lyrics Bass and Guitar Tabs

 

The Tabs Are Below

Learn To Read Tab
Chords Handbook
Corrections & Additions
Get Official Tab
Sublime tabs @ 911Tabs

 

SUPERSTAR PUNANI BY SUBLIME

TRANSCRIBED BY HOOCHIE MAMA

THIS IS A COOL SONG OFF SECOND HAND SMOKE AND IT'S PRETTY EASY. THE HARDEST

PART ABOUT IT IS MEMORIZING IT, BUT ONCE YOU GET THAT IT'S SWEET TO PLAY!IT

SOUNDS BETTER WHEN YOU PLAY IT WITH YOUR FINGER AND HAVE THE TONE PRETTY

LOW.

ENJOY!!!

 

STANDARD TUNNING (E,A,D,G)

 

VERSE

 

G|------------------------

D|--------88-7------------

A|5-7-8-5-----5-7-8-5-----

E|--------------------66-5

 

PRE-CHORUS

 

G|------------------------------------------------------------

D|55-555-555-555----------------55-555-555-555-7-7-7-7-7-7-7-7

A|---------------55-555-555-555-------------------------------

E|------------------------------------------------------------

 

CHORUS

 

G|------------------------------- ----

D|--4-7-----2-5------------------ ---- <-THIS RIFF PLAYED

A|5-----5-3-----3---5-8-----4-7-- 5-5- PLAYED ONCE AFTER

E|----------------6-----6-5-----5 66-5 FIRST CHORUS

 

SUBLIME RULES

 

Return to my to my Sublime bass tabs page

The Tablature is Copyright its respective owners.

Sign Up For My Newsletter
Subscribe | Unsubscribe

Site Map | Disclaimer | Privacy Policy | Media Kit | Submissions/Corrections

Website © 2000-2014 mattsmusicpage.com. All rights reserved.

Legal & DMCA: Matt's Music Page has been providing lyrics and tabs in a legal way, paying royalties each year to a few organizations. Then, all lyrics and tabs were removed from the site. Now, there's a new owner to the site, which purchased it August 26, 2014, and he is in negotiation to obtain licensing from BMI at the moment. If you have a specific DMCA request -- please do not hesitate to contact me via the contact button on top. I will do my very best to keep this site fully legal.

Get our toolbar!